  0
SECTION
  2
HEADER
  9
$ACADVER
  1
AC1009
  9
$INSBASE
 10
0.0
 20
0.0
 30
0.0
  9
$EXTMIN
 10
6.2220397377675383
 20
1.0053196378565259
 30
0.0
  9
$EXTMAX
 10
20.3628052532615094
 20
17.70514027146071
 30
0.0
  9
$LIMMIN
 10
0.0
 20
0.0
  9
$LIMMAX
 10
12.0
 20
9.0
  9
$ORTHOMODE
 70
     0
  9
$REGENMODE
 70
     1
  9
$FILLMODE
 70
     1
  9
$QTEXTMODE
 70
     0
  9
$MIRRTEXT
 70
     0
  9
$DRAGMODE
 70
     2
  9
$LTSCALE
 40
1.0
  9
$OSMODE
 70
   695
  9
$ATTMODE
 70
     1
  9
$TEXTSIZE
 40
0.2
  9
$TRACEWID
 40
0.05
  9
$TEXTSTYLE
  7
STANDARD
  9
$CLAYER
  8
0
  9
$CELTYPE
  6
BYLAYER
  9
$CECOLOR
 62
   256
  9
$DIMSCALE
 40
1.0
  9
$DIMASZ
 40
0.18
  9
$DIMEXO
 40
0.0625
  9
$DIMDLI
 40
0.38
  9
$DIMRND
 40
0.0
  9
$DIMDLE
 40
0.0
  9
$DIMEXE
 40
0.18
  9
$DIMTP
 40
0.0
  9
$DIMTM
 40
0.0
  9
$DIMTXT
 40
0.18
  9
$DIMCEN
 40
0.09
  9
$DIMTSZ
 40
0.0
  9
$DIMTOL
 70
     0
  9
$DIMLIM
 70
     0
  9
$DIMTIH
 70
     1
  9
$DIMTOH
 70
     1
  9
$DIMSE1
 70
     0
  9
$DIMSE2
 70
     0
  9
$DIMTAD
 70
     0
  9
$DIMZIN
 70
     0
  9
$DIMBLK
  1

  9
$DIMASO
 70
     1
  9
$DIMSHO
 70
     1
  9
$DIMPOST
  1

  9
$DIMAPOST
  1

  9
$DIMALT
 70
     0
  9
$DIMALTD
 70
     2
  9
$DIMALTF
 40
25.3999999999999986
  9
$DIMLFAC
 40
1.0
  9
$DIMTOFL
 70
     0
  9
$DIMTVP
 40
0.0
  9
$DIMTIX
 70
     0
  9
$DIMSOXD
 70
     0
  9
$DIMSAH
 70
     0
  9
$DIMBLK1
  1

  9
$DIMBLK2
  1

  9
$DIMSTYLE
  2
STANDARD
  9
$DIMCLRD
 70
     0
  9
$DIMCLRE
 70
     0
  9
$DIMCLRT
 70
     0
  9
$DIMTFAC
 40
1.0
  9
$DIMGAP
 40
0.09
  9
$LUNITS
 70
     2
  9
$LUPREC
 70
     4
  9
$SKETCHINC
 40
0.1
  9
$FILLETRAD
 40
0.0
  9
$AUNITS
 70
     0
  9
$AUPREC
 70
     0
  9
$MENU
  1
.
  9
$ELEVATION
 40
0.0
  9
$PELEVATION
 40
0.0
  9
$THICKNESS
 40
0.0
  9
$LIMCHECK
 70
     0
  9
$BLIPMODE
 70
     0
  9
$CHAMFERA
 40
0.0
  9
$CHAMFERB
 40
0.0
  9
$SKPOLY
 70
     0
  9
$TDCREATE
 40
2459084.5748842600733042
  9
$TDUPDATE
 40
2459084.576863425783813
  9
$TDINDWG
 40
0.0020138889
  9
$TDUSRTIMER
 40
0.0020138889
  9
$USRTIMER
 70
     1
  9
$ANGBASE
 50
0.0
  9
$ANGDIR
 70
     0
  9
$PDMODE
 70
     0
  9
$PDSIZE
 40
0.0
  9
$PLINEWID
 40
0.0
  9
$COORDS
 70
     1
  9
$SPLFRAME
 70
     0
  9
$SPLINETYPE
 70
     6
  9
$SPLINESEGS
 70
     8
  9
$ATTDIA
 70
     1
  9
$ATTREQ
 70
     1
  9
$HANDLING
 70
     1
  9
$HANDSEED
  5
537
  9
$SURFTAB1
 70
     6
  9
$SURFTAB2
 70
     6
  9
$SURFTYPE
 70
     6
  9
$SURFU
 70
     6
  9
$SURFV
 70
     6
  9
$UCSNAME
  2

  9
$UCSORG
 10
0.0
 20
0.0
 30
0.0
  9
$UCSXDIR
 10
1.0
 20
0.0
 30
0.0
  9
$UCSYDIR
 10
0.0
 20
1.0
 30
0.0
  9
$PUCSNAME
  2

  9
$PUCSORG
 10
0.0
 20
0.0
 30
0.0
  9
$PUCSXDIR
 10
1.0
 20
0.0
 30
0.0
  9
$PUCSYDIR
 10
0.0
 20
1.0
 30
0.0
  9
$USERI1
 70
     0
  9
$USERI2
 70
     0
  9
$USERI3
 70
     0
  9
$USERI4
 70
     0
  9
$USERI5
 70
     0
  9
$USERR1
 40
0.0
  9
$USERR2
 40
0.0
  9
$USERR3
 40
0.0
  9
$USERR4
 40
0.0
  9
$USERR5
 40
0.0
  9
$WORLDVIEW
 70
     1
  9
$SHADEDGE
 70
     3
  9
$SHADEDIF
 70
    70
  9
$TILEMODE
 70
     1
  9
$MAXACTVP
 70
    64
  9
$PLIMCHECK
 70
     0
  9
$PEXTMIN
 10
-5.4266210631808507
 20
-1.3056710019297091
 30
0.0
  9
$PEXTMAX
 10
15.9266203422931802
 20
15.3941496316744804
 30
0.0
  9
$PLIMMIN
 10
0.0
 20
0.0
  9
$PLIMMAX
 10
12.0
 20
9.0
  9
$UNITMODE
 70
     0
  9
$VISRETAIN
 70
     1
  9
$PLINEGEN
 70
     0
  9
$PSLTSCALE
 70
     1
  0
ENDSEC
  0
SECTION
  2
TABLES
  0
TABLE
  2
VPORT
 70
     1
  0
VPORT
  2
*ACTIVE
 70
     0
 10
0.0
 20
0.0
 11
1.0
 21
1.0
 12
12.3514749278147793
 22
4.8625865675165301
 13
0.0
 23
0.0
 14
0.5
 24
0.5
 15
0.5
 25
0.5
 16
0.0
 26
0.0
 36
1.0
 17
0.0
 27
0.0
 37
0.0
 40
37.0154693671902919
 41
2.3744292237442921
 42
50.0
 43
0.0
 44
0.0
 50
0.0
 51
0.0
 71
     0
 72
  1000
 73
     1
 74
     3
 75
     0
 76
     0
 77
     0
 78
     0
  0
ENDTAB
  0
TABLE
  2
LTYPE
 70
     1
  0
LTYPE
  2
CONTINUOUS
 70
     0
  3
Solid line
 72
    65
 73
     0
 40
0.0
  0
ENDTAB
  0
TABLE
  2
LAYER
 70
     2
  0
LAYER
  2
0
 70
     0
 62
     7
  6
CONTINUOUS
  0
LAYER
  2
VISIBLE_NARROW__ISO_
 70
     0
 62
     7
  6
CONTINUOUS
  0
ENDTAB
  0
TABLE
  2
STYLE
 70
     3
  0
STYLE
  2
STANDARD
 70
     0
 40
0.0
 41
1.0
 50
0.0
 71
     0
 42
0.2
  3
txt
  4

  0
STYLE
  2
ANNOTATIVE
 70
     0
 40
0.0
 41
1.0
 50
0.0
 71
     0
 42
0.2
  3
txt
  4

  0
STYLE
  2
TEXT_3_5MM
 70
     0
 40
0.0
 41
0.899999976158142
 50
0.0
 71
     0
 42
0.2
  3
txt
  4

  0
ENDTAB
  0
TABLE
  2
VIEW
 70
     2
  0
ENDTAB
  0
TABLE
  2
UCS
 70
     0
  0
ENDTAB
  0
TABLE
  2
APPID
 70
     5
  0
APPID
  2
ACAD
 70
     0
  0
APPID
  2
ACADANNOTATIVE
 70
     0
  0
APPID
  2
ACAD_NAV_VCDISPLAY
 70
     0
  0
APPID
  2
ACAD_PSEXT
 70
     0
  0
APPID
  2
ACAD_MLEADERVER
 70
     0
  0
ENDTAB
  0
TABLE
  2
DIMSTYLE
 70
     3
  0
DIMSTYLE
  2
STANDARD
 70
     0
  3

  4

  5

  6

  7

 40
1.0
 41
0.18
 42
0.0625
 43
0.38
 44
0.18
 45
0.0
 46
0.0
 47
0.0
 48
0.0
140
0.18
141
0.09
142
0.0
143
25.3999999999999986
144
1.0
145
0.0
146
1.0
147
0.09
 71
     0
 72
     0
 73
     1
 74
     1
 75
     0
 76
     0
 77
     0
 78
     0
170
     0
171
     2
172
     0
173
     0
174
     0
175
     0
176
     0
177
     0
178
     0
  0
DIMSTYLE
  2
ANNOTATIVE
 70
     0
  3

  4

  5

  6

  7

 40
1.0
 41
0.18
 42
0.0625
 43
0.38
 44
0.18
 45
0.0
 46
0.0
 47
0.0
 48
0.0
140
0.18
141
0.09
142
0.0
143
25.3999999999999986
144
1.0
145
0.0
146
1.0
147
0.09
 71
     0
 72
     0
 73
     1
 74
     1
 75
     0
 76
     0
 77
     0
 78
     0
170
     0
171
     2
172
     0
173
     0
174
     0
175
     0
176
     0
177
     0
178
     0
  0
DIMSTYLE
  2
KS-STANDARD
 70
     0
  3

  4

  5

  6

  7

 40
5.0
 41
2.5
 42
1.0
 43
12.0
 44
2.0
 45
0.00000001
 46
10.0
 47
0.0
 48
0.0
140
2.5
141
0.09
142
0.0
143
0.03937
144
1.0
145
0.0
146
1.0
147
0.8
 71
     0
 72
     0
 73
     0
 74
     0
 75
     0
 76
     0
 77
     1
 78
     8
170
     0
171
     3
172
     1
173
     0
174
     0
175
     0
176
     7
177
     7
178
     7
  0
ENDTAB
  0
ENDSEC
  0
SECTION
  2
BLOCKS
  0
BLOCK
  8
0
  2
$MODEL_SPACE
 70
     0
 10
0.0
 20
0.0
 30
0.0
  3
$MODEL_SPACE
  1

  0
ENDBLK
  5
72
  8
0
  0
BLOCK
 67
     1
  8
0
  2
$PAPER_SPACE
 70
     0
 10
0.0
 20
0.0
 30
0.0
  3
$PAPER_SPACE
  1

  0
ENDBLK
  5
6E
 67
     1
  8
0
  0
ENDSEC
  0
SECTION
  2
ENTITIES
  0
POLYLINE
  5
91
  8
VISIBLE_NARROW__ISO_
 10
20.3628052532612784
 20
16.8323223316358437
 30
0.0
 66
     1
 70
     8
  0
VERTEX
  8
VISIBLE_NARROW__ISO_
  5
127
 10
20.3628
 20
16.8323
 30
0.000000
  70
    32
  0
VERTEX
  8
VISIBLE_NARROW__ISO_
  5
128
 10
20.3627
 20
16.8430
 30
0.000000
  70
    32
  0
VERTEX
  8
VISIBLE_NARROW__ISO_
  5
129
 10
20.3625
 20
16.8538
 30
0.000000
  70
    32
  0
VERTEX
  8
VISIBLE_NARROW__ISO_
  5
12A
 10
20.3622
 20
16.8645
 30
0.000000
  70
    32
  0
VERTEX
  8
VISIBLE_NARROW__ISO_
  5
12B
 10
20.3618
 20
16.8752
 30
0.000000
  70
    32
  0
VERTEX
  8
VISIBLE_NARROW__ISO_
  5
12C
 10
20.3612
 20
16.8859
 30
0.000000
  70
    32
  0
VERTEX
  8
VISIBLE_NARROW__ISO_
  5
12D
 10
20.3604
 20
16.8966
 30
0.000000
  70
    32
  0
VERTEX
  8
VISIBLE_NARROW__ISO_
  5
12E
 10
20.3596
 20
16.9073
 30
0.000000
  70
    32
  0
VERTEX
  8
VISIBLE_NARROW__ISO_
  5
12F
 10
20.3586
 20
16.9179
 30
0.000000
  70
    32
  0
VERTEX
  8
VISIBLE_NARROW__ISO_
  5
130
 10
20.3575
 20
16.9286
 30
0.000000
  70
    32
  0
VERTEX
  8
VISIBLE_NARROW__ISO_
  5
131
 10
20.3562
 20
16.9393
 30
0.000000
  70
    32
  0
VERTEX
  8
VISIBLE_NARROW__ISO_
  5
132
 10
20.3549
 20
16.9499
 30
0.000000
  70
    32
  0
VERTEX
  8
VISIBLE_NARROW__ISO_
  5
133
 10
20.3534
 20
16.9605
 30
0.000000
  70
    32
  0
VERTEX
  8
VISIBLE_NARROW__ISO_
  5
134
 10
20.3517
 20
16.9711
 30
0.000000
  70
    32
  0
VERTEX
  8
VISIBLE_NARROW__ISO_
  5
135
 10
20.3500
 20
16.9817
 30
0.000000
  70
    32
  0
VERTEX
  8
VISIBLE_NARROW__ISO_
  5
136
 10
20.3481
 20
16.9922
 30
0.000000
  70
    32
  0
VERTEX
  8
VISIBLE_NARROW__ISO_
  5
137
 10
20.3460
 20
17.0027
 30
0.000000
  70
    32
  0
VERTEX
  8
VISIBLE_NARROW__ISO_
  5
138
 10
20.3439
 20
17.0132
 30
0.000000
  70
    32
  0
VERTEX
  8
VISIBLE_NARROW__ISO_
  5
139
 10
20.3416
 20
17.0237
 30
0.000000
  70
    32
  0
VERTEX
  8
VISIBLE_NARROW__ISO_
  5
13A
 10
20.3392
 20
17.0341
 30
0.000000
  70
    32
  0
VERTEX
  8
VISIBLE_NARROW__ISO_
  5
13B
 10
20.3367
 20
17.0445
 30
0.000000
  70
    32
  0
VERTEX
  8
VISIBLE_NARROW__ISO_
  5
13C
 10
20.3340
 20
17.0549
 30
0.000000
  70
    32
  0
VERTEX
  8
VISIBLE_NARROW__ISO_
  5
13D
 10
20.3312
 20
17.0653
 30
0.000000
  70
    32
  0
VERTEX
  8
VISIBLE_NARROW__ISO_
  5
13E
 10
20.3283
 20
17.0756
 30
0.000000
  70
    32
  0
VERTEX
  8
VISIBLE_NARROW__ISO_
  5
13F
 10
20.3252
 20
17.0858
 30
0.000000
  70
    32
  0
VERTEX
  8
VISIBLE_NARROW__ISO_
  5
140
 10
20.3221
 20
17.0961
 30
0.000000
  70
    32
  0
VERTEX
  8
VISIBLE_NARROW__ISO_
  5
141
 10
20.3188
 20
17.1063
 30
0.000000
  70
    32
  0
VERTEX
  8
VISIBLE_NARROW__ISO_
  5
142
 10
20.3154
 20
17.1164
 30
0.000000
  70
    32
  0
VERTEX
  8
VISIBLE_NARROW__ISO_
  5
143
 10
20.3118
 20
17.1265
 30
0.000000
  70
    32
  0
VERTEX
  8
VISIBLE_NARROW__ISO_
  5
144
 10
20.3082
 20
17.1366
 30
0.000000
  70
    32
  0
VERTEX
  8
VISIBLE_NARROW__ISO_
  5
145
 10
20.3044
 20
17.1466
 30
0.000000
  70
    32
  0
VERTEX
  8
VISIBLE_NARROW__ISO_
  5
146
 10
20.3004
 20
17.1566
 30
0.000000
  70
    32
  0
VERTEX
  8
VISIBLE_NARROW__ISO_
  5
147
 10
20.2964
 20
17.1665
 30
0.000000
  70
    32
  0
VERTEX
  8
VISIBLE_NARROW__ISO_
  5
148
 10
20.2923
 20
17.1764
 30
0.000000
  70
    32
  0
VERTEX
  8
VISIBLE_NARROW__ISO_
  5
149
 10
20.2880
 20
17.1862
 30
0.000000
  70
    32
  0
VERTEX
  8
VISIBLE_NARROW__ISO_
  5
14A
 10
20.2836
 20
17.1960
 30
0.000000
  70
    32
  0
VERTEX
  8
VISIBLE_NARROW__ISO_
  5
14B
 10
20.2791
 20
17.2057
 30
0.000000
  70
    32
  0
VERTEX
  8
VISIBLE_NARROW__ISO_
  5
14C
 10
20.2744
 20
17.2153
 30
0.000000
  70
    32
  0
VERTEX
  8
VISIBLE_NARROW__ISO_
  5
14D
 10
20.2697
 20
17.2249
 30
0.000000
  70
    32
  0
VERTEX
  8
VISIBLE_NARROW__ISO_
  5
14E
 10
20.2648
 20
17.2345
 30
0.000000
  70
    32
  0
VERTEX
  8
VISIBLE_NARROW__ISO_
  5
14F
 10
20.2598
 20
17.2440
 30
0.000000
  70
    32
  0
VERTEX
  8
VISIBLE_NARROW__ISO_
  5
150
 10
20.2547
 20
17.2534
 30
0.000000
  70
    32
  0
VERTEX
  8
VISIBLE_NARROW__ISO_
  5
151
 10
20.2495
 20
17.2627
 30
0.000000
  70
    32
  0
VERTEX
  8
VISIBLE_NARROW__ISO_
  5
152
 10
20.2442
 20
17.2720
 30
0.000000
  70
    32
  0
VERTEX
  8
VISIBLE_NARROW__ISO_
  5
153
 10
20.2387
 20
17.2812
 30
0.000000
  70
    32
  0
VERTEX
  8
VISIBLE_NARROW__ISO_
  5
154
 10
20.2332
 20
17.2904
 30
0.000000
  70
    32
  0
VERTEX
  8
VISIBLE_NARROW__ISO_
  5
155
 10
20.2275
 20
17.2995
 30
0.000000
  70
    32
  0
VERTEX
  8
VISIBLE_NARROW__ISO_
  5
156
 10
20.2217
 20
17.3085
 30
0.000000
  70
    32
  0
VERTEX
  8
VISIBLE_NARROW__ISO_
  5
157
 10
20.2158
 20
17.3174
 30
0.000000
  70
    32
  0
VERTEX
  8
VISIBLE_NARROW__ISO_
  5
158
 10
20.2098
 20
17.3263
 30
0.000000
  70
    32
  0
VERTEX
  8
VISIBLE_NARROW__ISO_
  5
159
 10
20.2037
 20
17.3351
 30
0.000000
  70
    32
  0
VERTEX
  8
VISIBLE_NARROW__ISO_
  5
15A
 10
20.1975
 20
17.3438
 30
0.000000
  70
    32
  0
VERTEX
  8
VISIBLE_NARROW__ISO_
  5
15B
 10
20.1911
 20
17.3524
 30
0.000000
  70
    32
  0
VERTEX
  8
VISIBLE_NARROW__ISO_
  5
15C
 10
20.1847
 20
17.3610
 30
0.000000
  70
    32
  0
VERTEX
  8
VISIBLE_NARROW__ISO_
  5
15D
 10
20.1782
 20
17.3695
 30
0.000000
  70
    32
  0
VERTEX
  8
VISIBLE_NARROW__ISO_
  5
15E
 10
20.1715
 20
17.3779
 30
0.000000
  70
    32
  0
VERTEX
  8
VISIBLE_NARROW__ISO_
  5
15F
 10
20.1648
 20
17.3862
 30
0.000000
  70
    32
  0
VERTEX
  8
VISIBLE_NARROW__ISO_
  5
160
 10
20.1580
 20
17.3944
 30
0.000000
  70
    32
  0
VERTEX
  8
VISIBLE_NARROW__ISO_
  5
161
 10
20.1510
 20
17.4026
 30
0.000000
  70
    32
  0
VERTEX
  8
VISIBLE_NARROW__ISO_
  5
162
 10
20.1440
 20
17.4106
 30
0.000000
  70
    32
  0
VERTEX
  8
VISIBLE_NARROW__ISO_
  5
163
 10
20.1368
 20
17.4186
 30
0.000000
  70
    32
  0
VERTEX
  8
VISIBLE_NARROW__ISO_
  5
164
 10
20.1296
 20
17.4265
 30
0.000000
  70
    32
  0
VERTEX
  8
VISIBLE_NARROW__ISO_
  5
165
 10
20.1223
 20
17.4343
 30
0.000000
  70
    32
  0
VERTEX
  8
VISIBLE_NARROW__ISO_
  5
166
 10
20.1148
 20
17.4420
 30
0.000000
  70
    32
  0
VERTEX
  8
VISIBLE_NARROW__ISO_
  5
167
 10
20.1073
 20
17.4496
 30
0.000000
  70
    32
  0
VERTEX
  8
VISIBLE_NARROW__ISO_
  5
168
 10
20.0997
 20
17.4572
 30
0.000000
  70
    32
  0
VERTEX
  8
VISIBLE_NARROW__ISO_
  5
169
 10
20.0920
 20
17.4646
 30
0.000000
  70
    32
  0
VERTEX
  8
VISIBLE_NARROW__ISO_
  5
16A
 10
20.0842
 20
17.4719
 30
0.000000
  70
    32
  0
VERTEX
  8
VISIBLE_NARROW__ISO_
  5
16B
 10
20.0763
 20
17.4792
 30
0.000000
  70
    32
  0
VERTEX
  8
VISIBLE_NARROW__ISO_
  5
16C
 10
20.0683
 20
17.4863
 30
0.000000
  70
    32
  0
VERTEX
  8
VISIBLE_NARROW__ISO_
  5
16D
 10
20.0602
 20
17.4934
 30
0.000000
  70
    32
  0
VERTEX
  8
VISIBLE_NARROW__ISO_
  5
16E
 10
20.0521
 20
17.5003
 30
0.000000
  70
    32
  0
VERTEX
  8
VISIBLE_NARROW__ISO_
  5
16F
 10
20.0439
 20
17.5071
 30
0.000000
  70
    32
  0
VERTEX
  8
VISIBLE_NARROW__ISO_
  5
170
 10
20.0355
 20
17.5139
 30
0.000000
  70
    32
  0
VERTEX
  8
VISIBLE_NARROW__ISO_
  5
171
 10
20.0271
 20
17.5205
 30
0.000000
  70
    32
  0
VERTEX
  8
VISIBLE_NARROW__ISO_
  5
172
 10
20.0187
 20
17.5271
 30
0.000000
  70
    32
  0
VERTEX
  8
VISIBLE_NARROW__ISO_
  5
173
 10
20.0101
 20
17.5335
 30
0.000000
  70
    32
  0
VERTEX
  8
VISIBLE_NARROW__ISO_
  5
174
 10
20.0015
 20
17.5398
 30
0.000000
  70
    32
  0
VERTEX
  8
VISIBLE_NARROW__ISO_
  5
175
 10
19.9927
 20
17.5460
 30
0.000000
  70
    32
  0
VERTEX
  8
VISIBLE_NARROW__ISO_
  5
176
 10
19.9839
 20
17.5521
 30
0.000000
  70
    32
  0
VERTEX
  8
VISIBLE_NARROW__ISO_
  5
177
 10
19.9751
 20
17.5581
 30
0.000000
  70
    32
  0
VERTEX
  8
VISIBLE_NARROW__ISO_
  5
178
 10
19.9661
 20
17.5640
 30
0.000000
  70
    32
  0
VERTEX
  8
VISIBLE_NARROW__ISO_
  5
179
 10
19.9571
 20
17.5698
 30
0.000000
  70
    32
  0
VERTEX
  8
VISIBLE_NARROW__ISO_
  5
17A
 10
19.9480
 20
17.5755
 30
0.000000
  70
    32
  0
VERTEX
  8
VISIBLE_NARROW__ISO_
  5
17B
 10
19.9389
 20
17.5810
 30
0.000000
  70
    32
  0
VERTEX
  8
VISIBLE_NARROW__ISO_
  5
17C
 10
19.9297
 20
17.5865
 30
0.000000
  70
    32
  0
VERTEX
  8
VISIBLE_NARROW__ISO_
  5
17D
 10
19.9204
 20
17.5918
 30
0.000000
  70
    32
  0
VERTEX
  8
VISIBLE_NARROW__ISO_
  5
17E
 10
19.9110
 20
17.5970
 30
0.000000
  70
    32
  0
VERTEX
  8
VISIBLE_NARROW__ISO_
  5
17F
 10
19.9016
 20
17.6021
 30
0.000000
  70
    32
  0
VERTEX
  8
VISIBLE_NARROW__ISO_
  5
180
 10
19.8921
 20
17.6071
 30
0.000000
  70
    32
  0
VERTEX
  8
VISIBLE_NARROW__ISO_
  5
181
 10
19.8826
 20
17.6120
 30
0.000000
  70
    32
  0
VERTEX
  8
VISIBLE_NARROW__ISO_
  5
182
 10
19.8730
 20
17.6168
 30
0.000000
  70
    32
  0
VERTEX
  8
VISIBLE_NARROW__ISO_
  5
183
 10
19.8633
 20
17.6214
 30
0.000000
  70
    32
  0
VERTEX
  8
VISIBLE_NARROW__ISO_
  5
184
 10
19.8536
 20
17.6259
 30
0.000000
  70
    32
  0
VERTEX
  8
VISIBLE_NARROW__ISO_
  5
185
 10
19.8439
 20
17.6303
 30
0.000000
  70
    32
  0
VERTEX
  8
VISIBLE_NARROW__ISO_
  5
186
 10
19.8341
 20
17.6346
 30
0.000000
  70
    32
  0
VERTEX
  8
VISIBLE_NARROW__ISO_
  5
187
 10
19.8242
 20
17.6387
 30
0.000000
  70
    32
  0
VERTEX
  8
VISIBLE_NARROW__ISO_
  5
188
 10
19.8143
 20
17.6428
 30
0.000000
  70
    32
  0
VERTEX
  8
VISIBLE_NARROW__ISO_
  5
189
 10
19.8043
 20
17.6467
 30
0.000000
  70
    32
  0
VERTEX
  8
VISIBLE_NARROW__ISO_
  5
18A
 10
19.7943
 20
17.6505
 30
0.000000
  70
    32
  0
VERTEX
  8
VISIBLE_NARROW__ISO_
  5
18B
 10
19.7842
 20
17.6542
 30
0.000000
  70
    32
  0
VERTEX
  8
VISIBLE_NARROW__ISO_
  5
18C
 10
19.7741
 20
17.6577
 30
0.000000
  70
    32
  0
VERTEX
  8
VISIBLE_NARROW__ISO_
  5
18D
 10
19.7639
 20
17.6611
 30
0.000000
  70
    32
  0
VERTEX
  8
VISIBLE_NARROW__ISO_
  5
18E
 10
19.7537
 20
17.6644
 30
0.000000
  70
    32
  0
VERTEX
  8
VISIBLE_NARROW__ISO_
  5
18F
 10
19.7435
 20
17.6676
 30
0.000000
  70
    32
  0
VERTEX
  8
VISIBLE_NARROW__ISO_
  5
190
 10
19.7332
 20
17.6706
 30
0.000000
  70
    32
  0
VERTEX
  8
VISIBLE_NARROW__ISO_
  5
191
 10
19.7229
 20
17.6735
 30
0.000000
  70
    32
  0
VERTEX
  8
VISIBLE_NARROW__ISO_
  5
192
 10
19.7126
 20
17.6763
 30
0.000000
  70
    32
  0
VERTEX
  8
VISIBLE_NARROW__ISO_
  5
193
 10
19.7022
 20
17.6790
 30
0.000000
  70
    32
  0
VERTEX
  8
VISIBLE_NARROW__ISO_
  5
194
 10
19.6918
 20
17.6815
 30
0.000000
  70
    32
  0
VERTEX
  8
VISIBLE_NARROW__ISO_
  5
195
 10
19.6814
 20
17.6839
 30
0.000000
  70
    32
  0
VERTEX
  8
VISIBLE_NARROW__ISO_
  5
196
 10
19.6709
 20
17.6862
 30
0.000000
  70
    32
  0
VERTEX
  8
VISIBLE_NARROW__ISO_
  5
197
 10
19.6604
 20
17.6884
 30
0.000000
  70
    32
  0
VERTEX
  8
VISIBLE_NARROW__ISO_
  5
198
 10
19.6499
 20
17.6904
 30
0.000000
  70
    32
  0
VERTEX
  8
VISIBLE_NARROW__ISO_
  5
199
 10
19.6393
 20
17.6923
 30
0.000000
  70
    32
  0
VERTEX
  8
VISIBLE_NARROW__ISO_
  5
19A
 10
19.6288
 20
17.6941
 30
0.000000
  70
    32
  0
VERTEX
  8
VISIBLE_NARROW__ISO_
  5
19B
 10
19.6182
 20
17.6957
 30
0.000000
  70
    32
  0
VERTEX
  8
VISIBLE_NARROW__ISO_
  5
19C
 10
19.6075
 20
17.6972
 30
0.000000
  70
    32
  0
VERTEX
  8
VISIBLE_NARROW__ISO_
  5
19D
 10
19.5969
 20
17.6986
 30
0.000000
  70
    32
  0
VERTEX
  8
VISIBLE_NARROW__ISO_
  5
19E
 10
19.5863
 20
17.6998
 30
0.000000
  70
    32
  0
VERTEX
  8
VISIBLE_NARROW__ISO_
  5
19F
 10
19.5756
 20
17.7009
 30
0.000000
  70
    32
  0
VERTEX
  8
VISIBLE_NARROW__ISO_
  5
1A0
 10
19.5649
 20
17.7019
 30
0.000000
  70
    32
  0
VERTEX
  8
VISIBLE_NARROW__ISO_
  5
1A1
 10
19.5543
 20
17.7028
 30
0.000000
  70
    32
  0
VERTEX
  8
VISIBLE_NARROW__ISO_
  5
1A2
 10
19.5436
 20
17.7035
 30
0.000000
  70
    32
  0
VERTEX
  8
VISIBLE_NARROW__ISO_
  5
1A3
 10
19.5329
 20
17.7041
 30
0.000000
  70
    32
  0
VERTEX
  8
VISIBLE_NARROW__ISO_
  5
1A4
 10
19.5221
 20
17.7045
 30
0.000000
  70
    32
  0
VERTEX
  8
VISIBLE_NARROW__ISO_
  5
1A5
 10
19.5114
 20
17.7049
 30
0.000000
  70
    32
  0
VERTEX
  8
VISIBLE_NARROW__ISO_
  5
1A6
 10
19.5007
 20
17.7051
 30
0.000000
  70
    32
  0
VERTEX
  8
VISIBLE_NARROW__ISO_
  5
1A7
 10
19.4900
 20
17.7051
 30
0.000000
  70
    32
  0
SEQEND
  8
VISIBLE_NARROW__ISO_
  5
1A8
  0
LINE
  5
92
  8
VISIBLE_NARROW__ISO_
 10
19.4899873134365791
 20
17.70514027146071
 30
0.0
 11
7.0948576775924641
 21
17.70514027146071
 31
0.0
  0
POLYLINE
  5
93
  8
VISIBLE_NARROW__ISO_
 10
7.0948576775921808
 20
17.7051402714607065
 30
0.0
 66
     1
 70
     8
  0
VERTEX
  8
VISIBLE_NARROW__ISO_
  5
1A9
 10
7.09486
 20
17.7051
 30
0.000000
  70
    32
  0
VERTEX
  8
VISIBLE_NARROW__ISO_
  5
1AA
 10
7.08414
 20
17.7051
 30
0.000000
  70
    32
  0
VERTEX
  8
VISIBLE_NARROW__ISO_
  5
1AB
 10
7.07342
 20
17.7049
 30
0.000000
  70
    32
  0
VERTEX
  8
VISIBLE_NARROW__ISO_
  5
1AC
 10
7.06270
 20
17.7045
 30
0.000000
  70
    32
  0
VERTEX
  8
VISIBLE_NARROW__ISO_
  5
1AD
 10
7.05199
 20
17.7041
 30
0.000000
  70
    32
  0
VERTEX
  8
VISIBLE_NARROW__ISO_
  5
1AE
 10
7.04129
 20
17.7035
 30
0.000000
  70
    32
  0
VERTEX
  8
VISIBLE_NARROW__ISO_
  5
1AF
 10
7.03059
 20
17.7028
 30
0.000000
  70
    32
  0
VERTEX
  8
VISIBLE_NARROW__ISO_
  5
1B0
 10
7.01991
 20
17.7019
 30
0.000000
  70
    32
  0
VERTEX
  8
VISIBLE_NARROW__ISO_
  5
1B1
 10
7.00923
 20
17.7009
 30
0.000000
  70
    32
  0
VERTEX
  8
VISIBLE_NARROW__ISO_
  5
1B2
 10
6.99857
 20
17.6998
 30
0.000000
  70
    32
  0
VERTEX
  8
VISIBLE_NARROW__ISO_
  5
1B3
 10
6.98793
 20
17.6986
 30
0.000000
  70
    32
  0
VERTEX
  8
VISIBLE_NARROW__ISO_
  5
1B4
 10
6.97730
 20
17.6972
 30
0.000000
  70
    32
  0
VERTEX
  8
VISIBLE_NARROW__ISO_
  5
1B5
 10
6.96669
 20
17.6957
 30
0.000000
  70
    32
  0
VERTEX
  8
VISIBLE_NARROW__ISO_
  5
1B6
 10
6.95609
 20
17.6941
 30
0.000000
  70
    32
  0
VERTEX
  8
VISIBLE_NARROW__ISO_
  5
1B7
 10
6.94552
 20
17.6923
 30
0.000000
  70
    32
  0
VERTEX
  8
VISIBLE_NARROW__ISO_
  5
1B8
 10
6.93498
 20
17.6904
 30
0.000000
  70
    32
  0
VERTEX
  8
VISIBLE_NARROW__ISO_
  5
1B9
 10
6.92445
 20
17.6884
 30
0.000000
  70
    32
  0
VERTEX
  8
VISIBLE_NARROW__ISO_
  5
1BA
 10
6.91395
 20
17.6862
 30
0.000000
  70
    32
  0
VERTEX
  8
VISIBLE_NARROW__ISO_
  5
1BB
 10
6.90348
 20
17.6839
 30
0.000000
  70
    32
  0
VERTEX
  8
VISIBLE_NARROW__ISO_
  5
1BC
 10
6.89304
 20
17.6815
 30
0.000000
  70
    32
  0
VERTEX
  8
VISIBLE_NARROW__ISO_
  5
1BD
 10
6.88263
 20
17.6790
 30
0.000000
  70
    32
  0
VERTEX
  8
VISIBLE_NARROW__ISO_
  5
1BE
 10
6.87226
 20
17.6763
 30
0.000000
  70
    32
  0
VERTEX
  8
VISIBLE_NARROW__ISO_
  5
1BF
 10
6.86191
 20
17.6735
 30
0.000000
  70
    32
  0
VERTEX
  8
VISIBLE_NARROW__ISO_
  5
1C0
 10
6.85160
 20
17.6706
 30
0.000000
  70
    32
  0
VERTEX
  8
VISIBLE_NARROW__ISO_
  5
1C1
 10
6.84133
 20
17.6676
 30
0.000000
  70
    32
  0
VERTEX
  8
VISIBLE_NARROW__ISO_
  5
1C2
 10
6.83110
 20
17.6644
 30
0.000000
  70
    32
  0
VERTEX
  8
VISIBLE_NARROW__ISO_
  5
1C3
 10
6.82090
 20
17.6611
 30
0.000000
  70
    32
  0
VERTEX
  8
VISIBLE_NARROW__ISO_
  5
1C4
 10
6.81075
 20
17.6577
 30
0.000000
  70
    32
  0
VERTEX
  8
VISIBLE_NARROW__ISO_
  5
1C5
 10
6.80064
 20
17.6542
 30
0.000000
  70
    32
  0
VERTEX
  8
VISIBLE_NARROW__ISO_
  5
1C6
 10
6.79058
 20
17.6505
 30
0.000000
  70
    32
  0
VERTEX
  8
VISIBLE_NARROW__ISO_
  5
1C7
 10
6.78056
 20
17.6467
 30
0.000000
  70
    32
  0
VERTEX
  8
VISIBLE_NARROW__ISO_
  5
1C8
 10
6.77059
 20
17.6428
 30
0.000000
  70
    32
  0
VERTEX
  8
VISIBLE_NARROW__ISO_
  5
1C9
 10
6.76066
 20
17.6387
 30
0.000000
  70
    32
  0
VERTEX
  8
VISIBLE_NARROW__ISO_
  5
1CA
 10
6.75079
 20
17.6346
 30
0.000000
  70
    32
  0
VERTEX
  8
VISIBLE_NARROW__ISO_
  5
1CB
 10
6.74097
 20
17.6303
 30
0.000000
  70
    32
  0
VERTEX
  8
VISIBLE_NARROW__ISO_
  5
1CC
 10
6.73121
 20
17.6259
 30
0.000000
  70
    32
  0
VERTEX
  8
VISIBLE_NARROW__ISO_
  5
1CD
 10
6.72150
 20
17.6214
 30
0.000000
  70
    32
  0
VERTEX
  8
VISIBLE_NARROW__ISO_
  5
1CE
 10
6.71184
 20
17.6168
 30
0.000000
  70
    32
  0
VERTEX
  8
VISIBLE_NARROW__ISO_
  5
1CF
 10
6.70224
 20
17.6120
 30
0.000000
  70
    32
  0
VERTEX
  8
VISIBLE_NARROW__ISO_
  5
1D0
 10
6.69271
 20
17.6071
 30
0.000000
  70
    32
  0
VERTEX
  8
VISIBLE_NARROW__ISO_
  5
1D1
 10
6.68323
 20
17.6021
 30
0.000000
  70
    32
  0
VERTEX
  8
VISIBLE_NARROW__ISO_
  5
1D2
 10
6.67381
 20
17.5970
 30
0.000000
  70
    32
  0
VERTEX
  8
VISIBLE_NARROW__ISO_
  5
1D3
 10
6.66446
 20
17.5918
 30
0.000000
  70
    32
  0
VERTEX
  8
VISIBLE_NARROW__ISO_
  5
1D4
 10
6.65518
 20
17.5865
 30
0.000000
  70
    32
  0
VERTEX
  8
VISIBLE_NARROW__ISO_
  5
1D5
 10
6.64596
 20
17.5810
 30
0.000000
  70
    32
  0
VERTEX
  8
VISIBLE_NARROW__ISO_
  5
1D6
 10
6.63680
 20
17.5755
 30
0.000000
  70
    32
  0
VERTEX
  8
VISIBLE_NARROW__ISO_
  5
1D7
 10
6.62772
 20
17.5698
 30
0.000000
  70
    32
  0
VERTEX
  8
VISIBLE_NARROW__ISO_
  5
1D8
 10
6.61871
 20
17.5640
 30
0.000000
  70
    32
  0
VERTEX
  8
VISIBLE_NARROW__ISO_
  5
1D9
 10
6.60977
 20
17.5581
 30
0.000000
  70
    32
  0
VERTEX
  8
VISIBLE_NARROW__ISO_
  5
1DA
 10
6.60090
 20
17.5521
 30
0.000000
  70
    32
  0
VERTEX
  8
VISIBLE_NARROW__ISO_
  5
1DB
 10
6.59211
 20
17.5460
 30
0.000000
  70
    32
  0
VERTEX
  8
VISIBLE_NARROW__ISO_
  5
1DC
 10
6.58339
 20
17.5398
 30
0.000000
  70
    32
  0
VERTEX
  8
VISIBLE_NARROW__ISO_
  5
1DD
 10
6.57475
 20
17.5335
 30
0.000000
  70
    32
  0
VERTEX
  8
VISIBLE_NARROW__ISO_
  5
1DE
 10
6.56619
 20
17.5271
 30
0.000000
  70
    32
  0
VERTEX
  8
VISIBLE_NARROW__ISO_
  5
1DF
 10
6.55770
 20
17.5205
 30
0.000000
  70
    32
  0
VERTEX
  8
VISIBLE_NARROW__ISO_
  5
1E0
 10
6.54930
 20
17.5139
 30
0.000000
  70
    32
  0
VERTEX
  8
VISIBLE_NARROW__ISO_
  5
1E1
 10
6.54098
 20
17.5071
 30
0.000000
  70
    32
  0
VERTEX
  8
VISIBLE_NARROW__ISO_
  5
1E2
 10
6.53275
 20
17.5003
 30
0.000000
  70
    32
  0
VERTEX
  8
VISIBLE_NARROW__ISO_
  5
1E3
 10
6.52460
 20
17.4934
 30
0.000000
  70
    32
  0
VERTEX
  8
VISIBLE_NARROW__ISO_
  5
1E4
 10
6.51653
 20
17.4863
 30
0.000000
  70
    32
  0
VERTEX
  8
VISIBLE_NARROW__ISO_
  5
1E5
 10
6.50855
 20
17.4792
 30
0.000000
  70
    32
  0
VERTEX
  8
VISIBLE_NARROW__ISO_
  5
1E6
 10
6.50066
 20
17.4719
 30
0.000000
  70
    32
  0
VERTEX
  8
VISIBLE_NARROW__ISO_
  5
1E7
 10
6.49286
 20
17.4646
 30
0.000000
  70
    32
  0
VERTEX
  8
VISIBLE_NARROW__ISO_
  5
1E8
 10
6.48515
 20
17.4572
 30
0.000000
  70
    32
  0
VERTEX
  8
VISIBLE_NARROW__ISO_
  5
1E9
 10
6.47754
 20
17.4496
 30
0.000000
  70
    32
  0
VERTEX
  8
VISIBLE_NARROW__ISO_
  5
1EA
 10
6.47001
 20
17.4420
 30
0.000000
  70
    32
  0
VERTEX
  8
VISIBLE_NARROW__ISO_
  5
1EB
 10
6.46258
 20
17.4343
 30
0.000000
  70
    32
  0
VERTEX
  8
VISIBLE_NARROW__ISO_
  5
1EC
 10
6.45525
 20
17.4265
 30
0.000000
  70
    32
  0
VERTEX
  8
VISIBLE_NARROW__ISO_
  5
1ED
 10
6.44801
 20
17.4186
 30
0.000000
  70
    32
  0
VERTEX
  8
VISIBLE_NARROW__ISO_
  5
1EE
 10
6.44087
 20
17.4106
 30
0.000000
  70
    32
  0
VERTEX
  8
VISIBLE_NARROW__ISO_
  5
1EF
 10
6.43383
 20
17.4026
 30
0.000000
  70
    32
  0
VERTEX
  8
VISIBLE_NARROW__ISO_
  5
1F0
 10
6.42688
 20
17.3944
 30
0.000000
  70
    32
  0
VERTEX
  8
VISIBLE_NARROW__ISO_
  5
1F1
 10
6.42004
 20
17.3862
 30
0.000000
  70
    32
  0
VERTEX
  8
VISIBLE_NARROW__ISO_
  5
1F2
 10
6.41330
 20
17.3779
 30
0.000000
  70
    32
  0
VERTEX
  8
VISIBLE_NARROW__ISO_
  5
1F3
 10
6.40666
 20
17.3695
 30
0.000000
  70
    32
  0
VERTEX
  8
VISIBLE_NARROW__ISO_
  5
1F4
 10
6.40013
 20
17.3610
 30
0.000000
  70
    32
  0
VERTEX
  8
VISIBLE_NARROW__ISO_
  5
1F5
 10
6.39370
 20
17.3524
 30
0.000000
  70
    32
  0
VERTEX
  8
VISIBLE_NARROW__ISO_
  5
1F6
 10
6.38737
 20
17.3438
 30
0.000000
  70
    32
  0
VERTEX
  8
VISIBLE_NARROW__ISO_
  5
1F7
 10
6.38115
 20
17.3351
 30
0.000000
  70
    32
  0
VERTEX
  8
VISIBLE_NARROW__ISO_
  5
1F8
 10
6.37504
 20
17.3263
 30
0.000000
  70
    32
  0
VERTEX
  8
VISIBLE_NARROW__ISO_
  5
1F9
 10
6.36904
 20
17.3174
 30
0.000000
  70
    32
  0
VERTEX
  8
VISIBLE_NARROW__ISO_
  5
1FA
 10
6.36315
 20
17.3085
 30
0.000000
  70
    32
  0
VERTEX
  8
VISIBLE_NARROW__ISO_
  5
1FB
 10
6.35737
 20
17.2995
 30
0.000000
  70
    32
  0
VERTEX
  8
VISIBLE_NARROW__ISO_
  5
1FC
 10
6.35169
 20
17.2904
 30
0.000000
  70
    32
  0
VERTEX
  8
VISIBLE_NARROW__ISO_
  5
1FD
 10
6.34613
 20
17.2812
 30
0.000000
  70
    32
  0
VERTEX
  8
VISIBLE_NARROW__ISO_
  5
1FE
 10
6.34069
 20
17.2720
 30
0.000000
  70
    32
  0
VERTEX
  8
VISIBLE_NARROW__ISO_
  5
1FF
 10
6.33535
 20
17.2627
 30
0.000000
  70
    32
  0
VERTEX
  8
VISIBLE_NARROW__ISO_
  5
200
 10
6.33014
 20
17.2534
 30
0.000000
  70
    32
  0
VERTEX
  8
VISIBLE_NARROW__ISO_
  5
201
 10
6.32503
 20
17.2440
 30
0.000000
  70
    32
  0
VERTEX
  8
VISIBLE_NARROW__ISO_
  5
202
 10
6.32004
 20
17.2345
 30
0.000000
  70
    32
  0
VERTEX
  8
VISIBLE_NARROW__ISO_
  5
203
 10
6.31517
 20
17.2249
 30
0.000000
  70
    32
  0
VERTEX
  8
VISIBLE_NARROW__ISO_
  5
204
 10
6.31042
 20
17.2153
 30
0.000000
  70
    32
  0
VERTEX
  8
VISIBLE_NARROW__ISO_
  5
205
 10
6.30578
 20
17.2057
 30
0.000000
  70
    32
  0
VERTEX
  8
VISIBLE_NARROW__ISO_
  5
206
 10
6.30126
 20
17.1960
 30
0.000000
  70
    32
  0
VERTEX
  8
VISIBLE_NARROW__ISO_
  5
207
 10
6.29687
 20
17.1862
 30
0.000000
  70
    32
  0
VERTEX
  8
VISIBLE_NARROW__ISO_
  5
208
 10
6.29259
 20
17.1764
 30
0.000000
  70
    32
  0
VERTEX
  8
VISIBLE_NARROW__ISO_
  5
209
 10
6.28843
 20
17.1665
 30
0.000000
  70
    32
  0
VERTEX
  8
VISIBLE_NARROW__ISO_
  5
20A
 10
6.28440
 20
17.1566
 30
0.000000
  70
    32
  0
VERTEX
  8
VISIBLE_NARROW__ISO_
  5
20B
 10
6.28048
 20
17.1466
 30
0.000000
  70
    32
  0
VERTEX
  8
VISIBLE_NARROW__ISO_
  5
20C
 10
6.27669
 20
17.1366
 30
0.000000
  70
    32
  0
VERTEX
  8
VISIBLE_NARROW__ISO_
  5
20D
 10
6.27302
 20
17.1265
 30
0.000000
  70
    32
  0
VERTEX
  8
VISIBLE_NARROW__ISO_
  5
20E
 10
6.26948
 20
17.1164
 30
0.000000
  70
    32
  0
VERTEX
  8
VISIBLE_NARROW__ISO_
  5
20F
 10
6.26606
 20
17.1063
 30
0.000000
  70
    32
  0
VERTEX
  8
VISIBLE_NARROW__ISO_
  5
210
 10
6.26277
 20
17.0961
 30
0.000000
  70
    32
  0
VERTEX
  8
VISIBLE_NARROW__ISO_
  5
211
 10
6.25960
 20
17.0858
 30
0.000000
  70
    32
  0
VERTEX
  8
VISIBLE_NARROW__ISO_
  5
212
 10
6.25655
 20
17.0756
 30
0.000000
  70
    32
  0
VERTEX
  8
VISIBLE_NARROW__ISO_
  5
213
 10
6.25363
 20
17.0653
 30
0.000000
  70
    32
  0
VERTEX
  8
VISIBLE_NARROW__ISO_
  5
214
 10
6.25084
 20
17.0549
 30
0.000000
  70
    32
  0
VERTEX
  8
VISIBLE_NARROW__ISO_
  5
215
 10
6.24818
 20
17.0445
 30
0.000000
  70
    32
  0
VERTEX
  8
VISIBLE_NARROW__ISO_
  5
216
 10
6.24564
 20
17.0341
 30
0.000000
  70
    32
  0
VERTEX
  8
VISIBLE_NARROW__ISO_
  5
217
 10
6.24323
 20
17.0237
 30
0.000000
  70
    32
  0
VERTEX
  8
VISIBLE_NARROW__ISO_
  5
218
 10
6.24095
 20
17.0132
 30
0.000000
  70
    32
  0
VERTEX
  8
VISIBLE_NARROW__ISO_
  5
219
 10
6.23880
 20
17.0027
 30
0.000000
  70
    32
  0
VERTEX
  8
VISIBLE_NARROW__ISO_
  5
21A
 10
6.23677
 20
16.9922
 30
0.000000
  70
    32
  0
VERTEX
  8
VISIBLE_NARROW__ISO_
  5
21B
 10
6.23488
 20
16.9817
 30
0.000000
  70
    32
  0
VERTEX
  8
VISIBLE_NARROW__ISO_
  5
21C
 10
6.23312
 20
16.9711
 30
0.000000
  70
    32
  0
VERTEX
  8
VISIBLE_NARROW__ISO_
  5
21D
 10
6.23148
 20
16.9605
 30
0.000000
  70
    32
  0
VERTEX
  8
VISIBLE_NARROW__ISO_
  5
21E
 10
6.22997
 20
16.9499
 30
0.000000
  70
    32
  0
VERTEX
  8
VISIBLE_NARROW__ISO_
  5
21F
 10
6.22860
 20
16.9393
 30
0.000000
  70
    32
  0
VERTEX
  8
VISIBLE_NARROW__ISO_
  5
220
 10
6.22735
 20
16.9286
 30
0.000000
  70
    32
  0
VERTEX
  8
VISIBLE_NARROW__ISO_
  5
221
 10
6.22624
 20
16.9179
 30
0.000000
  70
    32
  0
VERTEX
  8
VISIBLE_NARROW__ISO_
  5
222
 10
6.22526
 20
16.9073
 30
0.000000
  70
    32
  0
VERTEX
  8
VISIBLE_NARROW__ISO_
  5
223
 10
6.22440
 20
16.8966
 30
0.000000
  70
    32
  0
VERTEX
  8
VISIBLE_NARROW__ISO_
  5
224
 10
6.22368
 20
16.8859
 30
0.000000
  70
    32
  0
VERTEX
  8
VISIBLE_NARROW__ISO_
  5
225
 10
6.22309
 20
16.8752
 30
0.000000
  70
    32
  0
VERTEX
  8
VISIBLE_NARROW__ISO_
  5
226
 10
6.22263
 20
16.8645
 30
0.000000
  70
    32
  0
VERTEX
  8
VISIBLE_NARROW__ISO_
  5
227
 10
6.22230
 20
16.8538
 30
0.000000
  70
    32
  0
VERTEX
  8
VISIBLE_NARROW__ISO_
  5
228
 10
6.22211
 20
16.8430
 30
0.000000
  70
    32
  0
VERTEX
  8
VISIBLE_NARROW__ISO_
  5
229
 10
6.22204
 20
16.8323
 30
0.000000
  70
    32
  0
SEQEND
  8
VISIBLE_NARROW__ISO_
  5
22A
  0
LINE
  5
94
  8
VISIBLE_NARROW__ISO_
 10
6.2220397377675383
 20
16.8323223316357904
 30
0.0
 11
6.2220397377675383
 21
1.8781375776813389
 31
0.0
  0
POLYLINE
  5
95
  8
VISIBLE_NARROW__ISO_
 10
6.2220397377673127
 20
1.878137577681392
 30
0.0
 66
     1
 70
     8
  0
VERTEX
  8
VISIBLE_NARROW__ISO_
  5
22B
 10
6.22204
 20
1.87814
 30
0.000000
  70
    32
  0
VERTEX
  8
VISIBLE_NARROW__ISO_
  5
22C
 10
6.22211
 20
1.86742
 30
0.000000
  70
    32
  0
VERTEX
  8
VISIBLE_NARROW__ISO_
  5
22D
 10
6.22230
 20
1.85670
 30
0.000000
  70
    32
  0
VERTEX
  8
VISIBLE_NARROW__ISO_
  5
22E
 10
6.22263
 20
1.84598
 30
0.000000
  70
    32
  0
VERTEX
  8
VISIBLE_NARROW__ISO_
  5
22F
 10
6.22309
 20
1.83527
 30
0.000000
  70
    32
  0
VERTEX
  8
VISIBLE_NARROW__ISO_
  5
230
 10
6.22368
 20
1.82457
 30
0.000000
  70
    32
  0
VERTEX
  8
VISIBLE_NARROW__ISO_
  5
231
 10
6.22440
 20
1.81387
 30
0.000000
  70
    32
  0
VERTEX
  8
VISIBLE_NARROW__ISO_
  5
232
 10
6.22526
 20
1.80319
 30
0.000000
  70
    32
  0
VERTEX
  8
VISIBLE_NARROW__ISO_
  5
233
 10
6.22624
 20
1.79251
 30
0.000000
  70
    32
  0
VERTEX
  8
VISIBLE_NARROW__ISO_
  5
234
 10
6.22735
 20
1.78185
 30
0.000000
  70
    32
  0
VERTEX
  8
VISIBLE_NARROW__ISO_
  5
235
 10
6.22860
 20
1.77121
 30
0.000000
  70
    32
  0
VERTEX
  8
VISIBLE_NARROW__ISO_
  5
236
 10
6.22997
 20
1.76058
 30
0.000000
  70
    32
  0
VERTEX
  8
VISIBLE_NARROW__ISO_
  5
237
 10
6.23148
 20
1.74997
 30
0.000000
  70
    32
  0
VERTEX
  8
VISIBLE_NARROW__ISO_
  5
238
 10
6.23312
 20
1.73937
 30
0.000000
  70
    32
  0
VERTEX
  8
VISIBLE_NARROW__ISO_
  5
239
 10
6.23488
 20
1.72880
 30
0.000000
  70
    32
  0
VERTEX
  8
VISIBLE_NARROW__ISO_
  5
23A
 10
6.23677
 20
1.71826
 30
0.000000
  70
    32
  0
VERTEX
  8
VISIBLE_NARROW__ISO_
  5
23B
 10
6.23880
 20
1.70773
 30
0.000000
  70
    32
  0
VERTEX
  8
VISIBLE_NARROW__ISO_
  5
23C
 10
6.24095
 20
1.69723
 30
0.000000
  70
    32
  0
VERTEX
  8
VISIBLE_NARROW__ISO_
  5
23D
 10
6.24323
 20
1.68676
 30
0.000000
  70
    32
  0
VERTEX
  8
VISIBLE_NARROW__ISO_
  5
23E
 10
6.24564
 20
1.67632
 30
0.000000
  70
    32
  0
VERTEX
  8
VISIBLE_NARROW__ISO_
  5
23F
 10
6.24818
 20
1.66591
 30
0.000000
  70
    32
  0
VERTEX
  8
VISIBLE_NARROW__ISO_
  5
240
 10
6.25084
 20
1.65554
 30
0.000000
  70
    32
  0
VERTEX
  8
VISIBLE_NARROW__ISO_
  5
241
 10
6.25363
 20
1.64519
 30
0.000000
  70
    32
  0
VERTEX
  8
VISIBLE_NARROW__ISO_
  5
242
 10
6.25655
 20
1.63488
 30
0.000000
  70
    32
  0
VERTEX
  8
VISIBLE_NARROW__ISO_
  5
243
 10
6.25960
 20
1.62461
 30
0.000000
  70
    32
  0
VERTEX
  8
VISIBLE_NARROW__ISO_
  5
244
 10
6.26277
 20
1.61438
 30
0.000000
  70
    32
  0
VERTEX
  8
VISIBLE_NARROW__ISO_
  5
245
 10
6.26606
 20
1.60418
 30
0.000000
  70
    32
  0
VERTEX
  8
VISIBLE_NARROW__ISO_
  5
246
 10
6.26948
 20
1.59403
 30
0.000000
  70
    32
  0
VERTEX
  8
VISIBLE_NARROW__ISO_
  5
247
 10
6.27302
 20
1.58392
 30
0.000000
  70
    32
  0
VERTEX
  8
VISIBLE_NARROW__ISO_
  5
248
 10
6.27669
 20
1.57386
 30
0.000000
  70
    32
  0
VERTEX
  8
VISIBLE_NARROW__ISO_
  5
249
 10
6.28048
 20
1.56384
 30
0.000000
  70
    32
  0
VERTEX
  8
VISIBLE_NARROW__ISO_
  5
24A
 10
6.28440
 20
1.55387
 30
0.000000
  70
    32
  0
VERTEX
  8
VISIBLE_NARROW__ISO_
  5
24B
 10
6.28843
 20
1.54394
 30
0.000000
  70
    32
  0
VERTEX
  8
VISIBLE_NARROW__ISO_
  5
24C
 10
6.29259
 20
1.53407
 30
0.000000
  70
    32
  0
VERTEX
  8
VISIBLE_NARROW__ISO_
  5
24D
 10
6.29687
 20
1.52425
 30
0.000000
  70
    32
  0
VERTEX
  8
VISIBLE_NARROW__ISO_
  5
24E
 10
6.30126
 20
1.51449
 30
0.000000
  70
    32
  0
VERTEX
  8
VISIBLE_NARROW__ISO_
  5
24F
 10
6.30578
 20
1.50478
 30
0.000000
  70
    32
  0
VERTEX
  8
VISIBLE_NARROW__ISO_
  5
250
 10
6.31042
 20
1.49512
 30
0.000000
  70
    32
  0
VERTEX
  8
VISIBLE_NARROW__ISO_
  5
251
 10
6.31517
 20
1.48552
 30
0.000000
  70
    32
  0
VERTEX
  8
VISIBLE_NARROW__ISO_
  5
252
 10
6.32004
 20
1.47599
 30
0.000000
  70
    32
  0
VERTEX
  8
VISIBLE_NARROW__ISO_
  5
253
 10
6.32503
 20
1.46651
 30
0.000000
  70
    32
  0
VERTEX
  8
VISIBLE_NARROW__ISO_
  5
254
 10
6.33014
 20
1.45709
 30
0.000000
  70
    32
  0
VERTEX
  8
VISIBLE_NARROW__ISO_
  5
255
 10
6.33535
 20
1.44774
 30
0.000000
  70
    32
  0
VERTEX
  8
VISIBLE_NARROW__ISO_
  5
256
 10
6.34069
 20
1.43846
 30
0.000000
  70
    32
  0
VERTEX
  8
VISIBLE_NARROW__ISO_
  5
257
 10
6.34613
 20
1.42924
 30
0.000000
  70
    32
  0
VERTEX
  8
VISIBLE_NARROW__ISO_
  5
258
 10
6.35169
 20
1.42008
 30
0.000000
  70
    32
  0
VERTEX
  8
VISIBLE_NARROW__ISO_
  5
259
 10
6.35737
 20
1.41100
 30
0.000000
  70
    32
  0
VERTEX
  8
VISIBLE_NARROW__ISO_
  5
25A
 10
6.36315
 20
1.40199
 30
0.000000
  70
    32
  0
VERTEX
  8
VISIBLE_NARROW__ISO_
  5
25B
 10
6.36904
 20
1.39305
 30
0.000000
  70
    32
  0
VERTEX
  8
VISIBLE_NARROW__ISO_
  5
25C
 10
6.37504
 20
1.38418
 30
0.000000
  70
    32
  0
VERTEX
  8
VISIBLE_NARROW__ISO_
  5
25D
 10
6.38115
 20
1.37539
 30
0.000000
  70
    32
  0
VERTEX
  8
VISIBLE_NARROW__ISO_
  5
25E
 10
6.38737
 20
1.36667
 30
0.000000
  70
    32
  0
VERTEX
  8
VISIBLE_NARROW__ISO_
  5
25F
 10
6.39370
 20
1.35803
 30
0.000000
  70
    32
  0
VERTEX
  8
VISIBLE_NARROW__ISO_
  5
260
 10
6.40013
 20
1.34947
 30
0.000000
  70
    32
  0
VERTEX
  8
VISIBLE_NARROW__ISO_
  5
261
 10
6.40666
 20
1.34098
 30
0.000000
  70
    32
  0
VERTEX
  8
VISIBLE_NARROW__ISO_
  5
262
 10
6.41330
 20
1.33258
 30
0.000000
  70
    32
  0
VERTEX
  8
VISIBLE_NARROW__ISO_
  5
263
 10
6.42004
 20
1.32426
 30
0.000000
  70
    32
  0
VERTEX
  8
VISIBLE_NARROW__ISO_
  5
264
 10
6.42688
 20
1.31603
 30
0.000000
  70
    32
  0
VERTEX
  8
VISIBLE_NARROW__ISO_
  5
265
 10
6.43383
 20
1.30788
 30
0.000000
  70
    32
  0
VERTEX
  8
VISIBLE_NARROW__ISO_
  5
266
 10
6.44087
 20
1.29981
 30
0.000000
  70
    32
  0
VERTEX
  8
VISIBLE_NARROW__ISO_
  5
267
 10
6.44801
 20
1.29183
 30
0.000000
  70
    32
  0
VERTEX
  8
VISIBLE_NARROW__ISO_
  5
268
 10
6.45525
 20
1.28394
 30
0.000000
  70
    32
  0
VERTEX
  8
VISIBLE_NARROW__ISO_
  5
269
 10
6.46258
 20
1.27614
 30
0.000000
  70
    32
  0
VERTEX
  8
VISIBLE_NARROW__ISO_
  5
26A
 10
6.47001
 20
1.26843
 30
0.000000
  70
    32
  0
VERTEX
  8
VISIBLE_NARROW__ISO_
  5
26B
 10
6.47754
 20
1.26082
 30
0.000000
  70
    32
  0
VERTEX
  8
VISIBLE_NARROW__ISO_
  5
26C
 10
6.48515
 20
1.25329
 30
0.000000
  70
    32
  0
VERTEX
  8
VISIBLE_NARROW__ISO_
  5
26D
 10
6.49286
 20
1.24586
 30
0.000000
  70
    32
  0
VERTEX
  8
VISIBLE_NARROW__ISO_
  5
26E
 10
6.50066
 20
1.23853
 30
0.000000
  70
    32
  0
VERTEX
  8
VISIBLE_NARROW__ISO_
  5
26F
 10
6.50855
 20
1.23129
 30
0.000000
  70
    32
  0
VERTEX
  8
VISIBLE_NARROW__ISO_
  5
270
 10
6.51653
 20
1.22415
 30
0.000000
  70
    32
  0
VERTEX
  8
VISIBLE_NARROW__ISO_
  5
271
 10
6.52460
 20
1.21711
 30
0.000000
  70
    32
  0
VERTEX
  8
VISIBLE_NARROW__ISO_
  5
272
 10
6.53275
 20
1.21016
 30
0.000000
  70
    32
  0
VERTEX
  8
VISIBLE_NARROW__ISO_
  5
273
 10
6.54098
 20
1.20332
 30
0.000000
  70
    32
  0
VERTEX
  8
VISIBLE_NARROW__ISO_
  5
274
 10
6.54930
 20
1.19658
 30
0.000000
  70
    32
  0
VERTEX
  8
VISIBLE_NARROW__ISO_
  5
275
 10
6.55770
 20
1.18994
 30
0.000000
  70
    32
  0
VERTEX
  8
VISIBLE_NARROW__ISO_
  5
276
 10
6.56619
 20
1.18341
 30
0.000000
  70
    32
  0
VERTEX
  8
VISIBLE_NARROW__ISO_
  5
277
 10
6.57475
 20
1.17698
 30
0.000000
  70
    32
  0
VERTEX
  8
VISIBLE_NARROW__ISO_
  5
278
 10
6.58339
 20
1.17065
 30
0.000000
  70
    32
  0
VERTEX
  8
VISIBLE_NARROW__ISO_
  5
279
 10
6.59211
 20
1.16443
 30
0.000000
  70
    32
  0
VERTEX
  8
VISIBLE_NARROW__ISO_
  5
27A
 10
6.60090
 20
1.15832
 30
0.000000
  70
    32
  0
VERTEX
  8
VISIBLE_NARROW__ISO_
  5
27B
 10
6.60977
 20
1.15232
 30
0.000000
  70
    32
  0
VERTEX
  8
VISIBLE_NARROW__ISO_
  5
27C
 10
6.61871
 20
1.14643
 30
0.000000
  70
    32
  0
VERTEX
  8
VISIBLE_NARROW__ISO_
  5
27D
 10
6.62772
 20
1.14065
 30
0.000000
  70
    32
  0
VERTEX
  8
VISIBLE_NARROW__ISO_
  5
27E
 10
6.63680
 20
1.13497
 30
0.000000
  70
    32
  0
VERTEX
  8
VISIBLE_NARROW__ISO_
  5
27F
 10
6.64596
 20
1.12941
 30
0.000000
  70
    32
  0
VERTEX
  8
VISIBLE_NARROW__ISO_
  5
280
 10
6.65518
 20
1.12397
 30
0.000000
  70
    32
  0
VERTEX
  8
VISIBLE_NARROW__ISO_
  5
281
 10
6.66446
 20
1.11863
 30
0.000000
  70
    32
  0
VERTEX
  8
VISIBLE_NARROW__ISO_
  5
282
 10
6.67381
 20
1.11342
 30
0.000000
  70
    32
  0
VERTEX
  8
VISIBLE_NARROW__ISO_
  5
283
 10
6.68323
 20
1.10831
 30
0.000000
  70
    32
  0
VERTEX
  8
VISIBLE_NARROW__ISO_
  5
284
 10
6.69271
 20
1.10332
 30
0.000000
  70
    32
  0
VERTEX
  8
VISIBLE_NARROW__ISO_
  5
285
 10
6.70224
 20
1.09845
 30
0.000000
  70
    32
  0
VERTEX
  8
VISIBLE_NARROW__ISO_
  5
286
 10
6.71184
 20
1.09370
 30
0.000000
  70
    32
  0
VERTEX
  8
VISIBLE_NARROW__ISO_
  5
287
 10
6.72150
 20
1.08906
 30
0.000000
  70
    32
  0
VERTEX
  8
VISIBLE_NARROW__ISO_
  5
288
 10
6.73121
 20
1.08454
 30
0.000000
  70
    32
  0
VERTEX
  8
VISIBLE_NARROW__ISO_
  5
289
 10
6.74097
 20
1.08015
 30
0.000000
  70
    32
  0
VERTEX
  8
VISIBLE_NARROW__ISO_
  5
28A
 10
6.75079
 20
1.07587
 30
0.000000
  70
    32
  0
VERTEX
  8
VISIBLE_NARROW__ISO_
  5
28B
 10
6.76066
 20
1.07171
 30
0.000000
  70
    32
  0
VERTEX
  8
VISIBLE_NARROW__ISO_
  5
28C
 10
6.77059
 20
1.06768
 30
0.000000
  70
    32
  0
VERTEX
  8
VISIBLE_NARROW__ISO_
  5
28D
 10
6.78056
 20
1.06376
 30
0.000000
  70
    32
  0
VERTEX
  8
VISIBLE_NARROW__ISO_
  5
28E
 10
6.79058
 20
1.05997
 30
0.000000
  70
    32
  0
VERTEX
  8
VISIBLE_NARROW__ISO_
  5
28F
 10
6.80064
 20
1.05630
 30
0.000000
  70
    32
  0
VERTEX
  8
VISIBLE_NARROW__ISO_
  5
290
 10
6.81075
 20
1.05276
 30
0.000000
  70
    32
  0
VERTEX
  8
VISIBLE_NARROW__ISO_
  5
291
 10
6.82090
 20
1.04934
 30
0.000000
  70
    32
  0
VERTEX
  8
VISIBLE_NARROW__ISO_
  5
292
 10
6.83110
 20
1.04605
 30
0.000000
  70
    32
  0
VERTEX
  8
VISIBLE_NARROW__ISO_
  5
293
 10
6.84133
 20
1.04288
 30
0.000000
  70
    32
  0
VERTEX
  8
VISIBLE_NARROW__ISO_
  5
294
 10
6.85160
 20
1.03983
 30
0.000000
  70
    32
  0
VERTEX
  8
VISIBLE_NARROW__ISO_
  5
295
 10
6.86191
 20
1.03691
 30
0.000000
  70
    32
  0
VERTEX
  8
VISIBLE_NARROW__ISO_
  5
296
 10
6.87226
 20
1.03412
 30
0.000000
  70
    32
  0
VERTEX
  8
VISIBLE_NARROW__ISO_
  5
297
 10
6.88263
 20
1.03146
 30
0.000000
  70
    32
  0
VERTEX
  8
VISIBLE_NARROW__ISO_
  5
298
 10
6.89304
 20
1.02892
 30
0.000000
  70
    32
  0
VERTEX
  8
VISIBLE_NARROW__ISO_
  5
299
 10
6.90348
 20
1.02651
 30
0.000000
  70
    32
  0
VERTEX
  8
VISIBLE_NARROW__ISO_
  5
29A
 10
6.91395
 20
1.02423
 30
0.000000
  70
    32
  0
VERTEX
  8
VISIBLE_NARROW__ISO_
  5
29B
 10
6.92445
 20
1.02208
 30
0.000000
  70
    32
  0
VERTEX
  8
VISIBLE_NARROW__ISO_
  5
29C
 10
6.93498
 20
1.02005
 30
0.000000
  70
    32
  0
VERTEX
  8
VISIBLE_NARROW__ISO_
  5
29D
 10
6.94552
 20
1.01816
 30
0.000000
  70
    32
  0
VERTEX
  8
VISIBLE_NARROW__ISO_
  5
29E
 10
6.95609
 20
1.01639
 30
0.000000
  70
    32
  0
VERTEX
  8
VISIBLE_NARROW__ISO_
  5
29F
 10
6.96669
 20
1.01476
 30
0.000000
  70
    32
  0
VERTEX
  8
VISIBLE_NARROW__ISO_
  5
2A0
 10
6.97730
 20
1.01325
 30
0.000000
  70
    32
  0
VERTEX
  8
VISIBLE_NARROW__ISO_
  5
2A1
 10
6.98793
 20
1.01188
 30
0.000000
  70
    32
  0
VERTEX
  8
VISIBLE_NARROW__ISO_
  5
2A2
 10
6.99857
 20
1.01063
 30
0.000000
  70
    32
  0
VERTEX
  8
VISIBLE_NARROW__ISO_
  5
2A3
 10
7.00923
 20
1.00952
 30
0.000000
  70
    32
  0
VERTEX
  8
VISIBLE_NARROW__ISO_
  5
2A4
 10
7.01991
 20
1.00854
 30
0.000000
  70
    32
  0
VERTEX
  8
VISIBLE_NARROW__ISO_
  5
2A5
 10
7.03059
 20
1.00768
 30
0.000000
  70
    32
  0
VERTEX
  8
VISIBLE_NARROW__ISO_
  5
2A6
 10
7.04129
 20
1.00696
 30
0.000000
  70
    32
  0
VERTEX
  8
VISIBLE_NARROW__ISO_
  5
2A7
 10
7.05199
 20
1.00637
 30
0.000000
  70
    32
  0
VERTEX
  8
VISIBLE_NARROW__ISO_
  5
2A8
 10
7.06270
 20
1.00591
 30
0.000000
  70
    32
  0
VERTEX
  8
VISIBLE_NARROW__ISO_
  5
2A9
 10
7.07342
 20
1.00558
 30
0.000000
  70
    32
  0
VERTEX
  8
VISIBLE_NARROW__ISO_
  5
2AA
 10
7.08414
 20
1.00539
 30
0.000000
  70
    32
  0
VERTEX
  8
VISIBLE_NARROW__ISO_
  5
2AB
 10
7.09486
 20
1.00532
 30
0.000000
  70
    32
  0
SEQEND
  8
VISIBLE_NARROW__ISO_
  5
2AC
  0
LINE
  5
96
  8
VISIBLE_NARROW__ISO_
 10
7.0948576775924641
 20
1.0053196378565259
 30
0.0
 11
19.4899873134365791
 21
1.0053196378565259
 31
0.0
  0
POLYLINE
  5
97
  8
VISIBLE_NARROW__ISO_
 10
19.4899873134364157
 20
1.0053196378565286
 30
0.0
 66
     1
 70
     8
  0
VERTEX
  8
VISIBLE_NARROW__ISO_
  5
2AD
 10
19.4900
 20
1.00532
 30
0.000000
  70
    32
  0
VERTEX
  8
VISIBLE_NARROW__ISO_
  5
2AE
 10
19.5007
 20
1.00539
 30
0.000000
  70
    32
  0
VERTEX
  8
VISIBLE_NARROW__ISO_
  5
2AF
 10
19.5114
 20
1.00558
 30
0.000000
  70
    32
  0
VERTEX
  8
VISIBLE_NARROW__ISO_
  5
2B0
 10
19.5221
 20
1.00591
 30
0.000000
  70
    32
  0
VERTEX
  8
VISIBLE_NARROW__ISO_
  5
2B1
 10
19.5329
 20
1.00637
 30
0.000000
  70
    32
  0
VERTEX
  8
VISIBLE_NARROW__ISO_
  5
2B2
 10
19.5436
 20
1.00696
 30
0.000000
  70
    32
  0
VERTEX
  8
VISIBLE_NARROW__ISO_
  5
2B3
 10
19.5543
 20
1.00768
 30
0.000000
  70
    32
  0
VERTEX
  8
VISIBLE_NARROW__ISO_
  5
2B4
 10
19.5649
 20
1.00854
 30
0.000000
  70
    32
  0
VERTEX
  8
VISIBLE_NARROW__ISO_
  5
2B5
 10
19.5756
 20
1.00952
 30
0.000000
  70
    32
  0
VERTEX
  8
VISIBLE_NARROW__ISO_
  5
2B6
 10
19.5863
 20
1.01063
 30
0.000000
  70
    32
  0
VERTEX
  8
VISIBLE_NARROW__ISO_
  5
2B7
 10
19.5969
 20
1.01188
 30
0.000000
  70
    32
  0
VERTEX
  8
VISIBLE_NARROW__ISO_
  5
2B8
 10
19.6075
 20
1.01325
 30
0.000000
  70
    32
  0
VERTEX
  8
VISIBLE_NARROW__ISO_
  5
2B9
 10
19.6182
 20
1.01476
 30
0.000000
  70
    32
  0
VERTEX
  8
VISIBLE_NARROW__ISO_
  5
2BA
 10
19.6288
 20
1.01639
 30
0.000000
  70
    32
  0
VERTEX
  8
VISIBLE_NARROW__ISO_
  5
2BB
 10
19.6393
 20
1.01816
 30
0.000000
  70
    32
  0
VERTEX
  8
VISIBLE_NARROW__ISO_
  5
2BC
 10
19.6499
 20
1.02005
 30
0.000000
  70
    32
  0
VERTEX
  8
VISIBLE_NARROW__ISO_
  5
2BD
 10
19.6604
 20
1.02208
 30
0.000000
  70
    32
  0
VERTEX
  8
VISIBLE_NARROW__ISO_
  5
2BE
 10
19.6709
 20
1.02423
 30
0.000000
  70
    32
  0
VERTEX
  8
VISIBLE_NARROW__ISO_
  5
2BF
 10
19.6814
 20
1.02651
 30
0.000000
  70
    32
  0
VERTEX
  8
VISIBLE_NARROW__ISO_
  5
2C0
 10
19.6918
 20
1.02892
 30
0.000000
  70
    32
  0
VERTEX
  8
VISIBLE_NARROW__ISO_
  5
2C1
 10
19.7022
 20
1.03146
 30
0.000000
  70
    32
  0
VERTEX
  8
VISIBLE_NARROW__ISO_
  5
2C2
 10
19.7126
 20
1.03412
 30
0.000000
  70
    32
  0
VERTEX
  8
VISIBLE_NARROW__ISO_
  5
2C3
 10
19.7229
 20
1.03691
 30
0.000000
  70
    32
  0
VERTEX
  8
VISIBLE_NARROW__ISO_
  5
2C4
 10
19.7332
 20
1.03983
 30
0.000000
  70
    32
  0
VERTEX
  8
VISIBLE_NARROW__ISO_
  5
2C5
 10
19.7435
 20
1.04288
 30
0.000000
  70
    32
  0
VERTEX
  8
VISIBLE_NARROW__ISO_
  5
2C6
 10
19.7537
 20
1.04605
 30
0.000000
  70
    32
  0
VERTEX
  8
VISIBLE_NARROW__ISO_
  5
2C7
 10
19.7639
 20
1.04934
 30
0.000000
  70
    32
  0
VERTEX
  8
VISIBLE_NARROW__ISO_
  5
2C8
 10
19.7741
 20
1.05276
 30
0.000000
  70
    32
  0
VERTEX
  8
VISIBLE_NARROW__ISO_
  5
2C9
 10
19.7842
 20
1.05630
 30
0.000000
  70
    32
  0
VERTEX
  8
VISIBLE_NARROW__ISO_
  5
2CA
 10
19.7943
 20
1.05997
 30
0.000000
  70
    32
  0
VERTEX
  8
VISIBLE_NARROW__ISO_
  5
2CB
 10
19.8043
 20
1.06376
 30
0.000000
  70
    32
  0
VERTEX
  8
VISIBLE_NARROW__ISO_
  5
2CC
 10
19.8143
 20
1.06768
 30
0.000000
  70
    32
  0
VERTEX
  8
VISIBLE_NARROW__ISO_
  5
2CD
 10
19.8242
 20
1.07171
 30
0.000000
  70
    32
  0
VERTEX
  8
VISIBLE_NARROW__ISO_
  5
2CE
 10
19.8341
 20
1.07587
 30
0.000000
  70
    32
  0
VERTEX
  8
VISIBLE_NARROW__ISO_
  5
2CF
 10
19.8439
 20
1.08015
 30
0.000000
  70
    32
  0
VERTEX
  8
VISIBLE_NARROW__ISO_
  5
2D0
 10
19.8536
 20
1.08454
 30
0.000000
  70
    32
  0
VERTEX
  8
VISIBLE_NARROW__ISO_
  5
2D1
 10
19.8633
 20
1.08906
 30
0.000000
  70
    32
  0
VERTEX
  8
VISIBLE_NARROW__ISO_
  5
2D2
 10
19.8730
 20
1.09370
 30
0.000000
  70
    32
  0
VERTEX
  8
VISIBLE_NARROW__ISO_
  5
2D3
 10
19.8826
 20
1.09845
 30
0.000000
  70
    32
  0
VERTEX
  8
VISIBLE_NARROW__ISO_
  5
2D4
 10
19.8921
 20
1.10332
 30
0.000000
  70
    32
  0
VERTEX
  8
VISIBLE_NARROW__ISO_
  5
2D5
 10
19.9016
 20
1.10831
 30
0.000000
  70
    32
  0
VERTEX
  8
VISIBLE_NARROW__ISO_
  5
2D6
 10
19.9110
 20
1.11342
 30
0.000000
  70
    32
  0
VERTEX
  8
VISIBLE_NARROW__ISO_
  5
2D7
 10
19.9204
 20
1.11863
 30
0.000000
  70
    32
  0
VERTEX
  8
VISIBLE_NARROW__ISO_
  5
2D8
 10
19.9297
 20
1.12397
 30
0.000000
  70
    32
  0
VERTEX
  8
VISIBLE_NARROW__ISO_
  5
2D9
 10
19.9389
 20
1.12941
 30
0.000000
  70
    32
  0
VERTEX
  8
VISIBLE_NARROW__ISO_
  5
2DA
 10
19.9480
 20
1.13497
 30
0.000000
  70
    32
  0
VERTEX
  8
VISIBLE_NARROW__ISO_
  5
2DB
 10
19.9571
 20
1.14065
 30
0.000000
  70
    32
  0
VERTEX
  8
VISIBLE_NARROW__ISO_
  5
2DC
 10
19.9661
 20
1.14643
 30
0.000000
  70
    32
  0
VERTEX
  8
VISIBLE_NARROW__ISO_
  5
2DD
 10
19.9751
 20
1.15232
 30
0.000000
  70
    32
  0
VERTEX
  8
VISIBLE_NARROW__ISO_
  5
2DE
 10
19.9839
 20
1.15832
 30
0.000000
  70
    32
  0
VERTEX
  8
VISIBLE_NARROW__ISO_
  5
2DF
 10
19.9927
 20
1.16443
 30
0.000000
  70
    32
  0
VERTEX
  8
VISIBLE_NARROW__ISO_
  5
2E0
 10
20.0015
 20
1.17065
 30
0.000000
  70
    32
  0
VERTEX
  8
VISIBLE_NARROW__ISO_
  5
2E1
 10
20.0101
 20
1.17698
 30
0.000000
  70
    32
  0
VERTEX
  8
VISIBLE_NARROW__ISO_
  5
2E2
 10
20.0187
 20
1.18341
 30
0.000000
  70
    32
  0
VERTEX
  8
VISIBLE_NARROW__ISO_
  5
2E3
 10
20.0271
 20
1.18994
 30
0.000000
  70
    32
  0
VERTEX
  8
VISIBLE_NARROW__ISO_
  5
2E4
 10
20.0355
 20
1.19658
 30
0.000000
  70
    32
  0
VERTEX
  8
VISIBLE_NARROW__ISO_
  5
2E5
 10
20.0439
 20
1.20332
 30
0.000000
  70
    32
  0
VERTEX
  8
VISIBLE_NARROW__ISO_
  5
2E6
 10
20.0521
 20
1.21016
 30
0.000000
  70
    32
  0
VERTEX
  8
VISIBLE_NARROW__ISO_
  5
2E7
 10
20.0602
 20
1.21711
 30
0.000000
  70
    32
  0
VERTEX
  8
VISIBLE_NARROW__ISO_
  5
2E8
 10
20.0683
 20
1.22415
 30
0.000000
  70
    32
  0
VERTEX
  8
VISIBLE_NARROW__ISO_
  5
2E9
 10
20.0763
 20
1.23129
 30
0.000000
  70
    32
  0
VERTEX
  8
VISIBLE_NARROW__ISO_
  5
2EA
 10
20.0842
 20
1.23853
 30
0.000000
  70
    32
  0
VERTEX
  8
VISIBLE_NARROW__ISO_
  5
2EB
 10
20.0920
 20
1.24586
 30
0.000000
  70
    32
  0
VERTEX
  8
VISIBLE_NARROW__ISO_
  5
2EC
 10
20.0997
 20
1.25329
 30
0.000000
  70
    32
  0
VERTEX
  8
VISIBLE_NARROW__ISO_
  5
2ED
 10
20.1073
 20
1.26082
 30
0.000000
  70
    32
  0
VERTEX
  8
VISIBLE_NARROW__ISO_
  5
2EE
 10
20.1148
 20
1.26843
 30
0.000000
  70
    32
  0
VERTEX
  8
VISIBLE_NARROW__ISO_
  5
2EF
 10
20.1223
 20
1.27614
 30
0.000000
  70
    32
  0
VERTEX
  8
VISIBLE_NARROW__ISO_
  5
2F0
 10
20.1296
 20
1.28394
 30
0.000000
  70
    32
  0
VERTEX
  8
VISIBLE_NARROW__ISO_
  5
2F1
 10
20.1368
 20
1.29183
 30
0.000000
  70
    32
  0
VERTEX
  8
VISIBLE_NARROW__ISO_
  5
2F2
 10
20.1440
 20
1.29981
 30
0.000000
  70
    32
  0
VERTEX
  8
VISIBLE_NARROW__ISO_
  5
2F3
 10
20.1510
 20
1.30788
 30
0.000000
  70
    32
  0
VERTEX
  8
VISIBLE_NARROW__ISO_
  5
2F4
 10
20.1580
 20
1.31603
 30
0.000000
  70
    32
  0
VERTEX
  8
VISIBLE_NARROW__ISO_
  5
2F5
 10
20.1648
 20
1.32426
 30
0.000000
  70
    32
  0
VERTEX
  8
VISIBLE_NARROW__ISO_
  5
2F6
 10
20.1715
 20
1.33258
 30
0.000000
  70
    32
  0
VERTEX
  8
VISIBLE_NARROW__ISO_
  5
2F7
 10
20.1782
 20
1.34098
 30
0.000000
  70
    32
  0
VERTEX
  8
VISIBLE_NARROW__ISO_
  5
2F8
 10
20.1847
 20
1.34947
 30
0.000000
  70
    32
  0
VERTEX
  8
VISIBLE_NARROW__ISO_
  5
2F9
 10
20.1911
 20
1.35803
 30
0.000000
  70
    32
  0
VERTEX
  8
VISIBLE_NARROW__ISO_
  5
2FA
 10
20.1975
 20
1.36667
 30
0.000000
  70
    32
  0
VERTEX
  8
VISIBLE_NARROW__ISO_
  5
2FB
 10
20.2037
 20
1.37539
 30
0.000000
  70
    32
  0
VERTEX
  8
VISIBLE_NARROW__ISO_
  5
2FC
 10
20.2098
 20
1.38418
 30
0.000000
  70
    32
  0
VERTEX
  8
VISIBLE_NARROW__ISO_
  5
2FD
 10
20.2158
 20
1.39305
 30
0.000000
  70
    32
  0
VERTEX
  8
VISIBLE_NARROW__ISO_
  5
2FE
 10
20.2217
 20
1.40199
 30
0.000000
  70
    32
  0
VERTEX
  8
VISIBLE_NARROW__ISO_
  5
2FF
 10
20.2275
 20
1.41100
 30
0.000000
  70
    32
  0
VERTEX
  8
VISIBLE_NARROW__ISO_
  5
300
 10
20.2332
 20
1.42008
 30
0.000000
  70
    32
  0
VERTEX
  8
VISIBLE_NARROW__ISO_
  5
301
 10
20.2387
 20
1.42924
 30
0.000000
  70
    32
  0
VERTEX
  8
VISIBLE_NARROW__ISO_
  5
302
 10
20.2442
 20
1.43846
 30
0.000000
  70
    32
  0
VERTEX
  8
VISIBLE_NARROW__ISO_
  5
303
 10
20.2495
 20
1.44774
 30
0.000000
  70
    32
  0
VERTEX
  8
VISIBLE_NARROW__ISO_
  5
304
 10
20.2547
 20
1.45709
 30
0.000000
  70
    32
  0
VERTEX
  8
VISIBLE_NARROW__ISO_
  5
305
 10
20.2598
 20
1.46651
 30
0.000000
  70
    32
  0
VERTEX
  8
VISIBLE_NARROW__ISO_
  5
306
 10
20.2648
 20
1.47599
 30
0.000000
  70
    32
  0
VERTEX
  8
VISIBLE_NARROW__ISO_
  5
307
 10
20.2697
 20
1.48552
 30
0.000000
  70
    32
  0
VERTEX
  8
VISIBLE_NARROW__ISO_
  5
308
 10
20.2744
 20
1.49512
 30
0.000000
  70
    32
  0
VERTEX
  8
VISIBLE_NARROW__ISO_
  5
309
 10
20.2791
 20
1.50478
 30
0.000000
  70
    32
  0
VERTEX
  8
VISIBLE_NARROW__ISO_
  5
30A
 10
20.2836
 20
1.51449
 30
0.000000
  70
    32
  0
VERTEX
  8
VISIBLE_NARROW__ISO_
  5
30B
 10
20.2880
 20
1.52425
 30
0.000000
  70
    32
  0
VERTEX
  8
VISIBLE_NARROW__ISO_
  5
30C
 10
20.2923
 20
1.53407
 30
0.000000
  70
    32
  0
VERTEX
  8
VISIBLE_NARROW__ISO_
  5
30D
 10
20.2964
 20
1.54394
 30
0.000000
  70
    32
  0
VERTEX
  8
VISIBLE_NARROW__ISO_
  5
30E
 10
20.3004
 20
1.55387
 30
0.000000
  70
    32
  0
VERTEX
  8
VISIBLE_NARROW__ISO_
  5
30F
 10
20.3044
 20
1.56384
 30
0.000000
  70
    32
  0
VERTEX
  8
VISIBLE_NARROW__ISO_
  5
310
 10
20.3082
 20
1.57386
 30
0.000000
  70
    32
  0
VERTEX
  8
VISIBLE_NARROW__ISO_
  5
311
 10
20.3118
 20
1.58392
 30
0.000000
  70
    32
  0
VERTEX
  8
VISIBLE_NARROW__ISO_
  5
312
 10
20.3154
 20
1.59403
 30
0.000000
  70
    32
  0
VERTEX
  8
VISIBLE_NARROW__ISO_
  5
313
 10
20.3188
 20
1.60418
 30
0.000000
  70
    32
  0
VERTEX
  8
VISIBLE_NARROW__ISO_
  5
314
 10
20.3221
 20
1.61438
 30
0.000000
  70
    32
  0
VERTEX
  8
VISIBLE_NARROW__ISO_
  5
315
 10
20.3252
 20
1.62461
 30
0.000000
  70
    32
  0
VERTEX
  8
VISIBLE_NARROW__ISO_
  5
316
 10
20.3283
 20
1.63488
 30
0.000000
  70
    32
  0
VERTEX
  8
VISIBLE_NARROW__ISO_
  5
317
 10
20.3312
 20
1.64519
 30
0.000000
  70
    32
  0
VERTEX
  8
VISIBLE_NARROW__ISO_
  5
318
 10
20.3340
 20
1.65554
 30
0.000000
  70
    32
  0
VERTEX
  8
VISIBLE_NARROW__ISO_
  5
319
 10
20.3367
 20
1.66591
 30
0.000000
  70
    32
  0
VERTEX
  8
VISIBLE_NARROW__ISO_
  5
31A
 10
20.3392
 20
1.67632
 30
0.000000
  70
    32
  0
VERTEX
  8
VISIBLE_NARROW__ISO_
  5
31B
 10
20.3416
 20
1.68676
 30
0.000000
  70
    32
  0
VERTEX
  8
VISIBLE_NARROW__ISO_
  5
31C
 10
20.3439
 20
1.69723
 30
0.000000
  70
    32
  0
VERTEX
  8
VISIBLE_NARROW__ISO_
  5
31D
 10
20.3460
 20
1.70773
 30
0.000000
  70
    32
  0
VERTEX
  8
VISIBLE_NARROW__ISO_
  5
31E
 10
20.3481
 20
1.71826
 30
0.000000
  70
    32
  0
VERTEX
  8
VISIBLE_NARROW__ISO_
  5
31F
 10
20.3500
 20
1.72880
 30
0.000000
  70
    32
  0
VERTEX
  8
VISIBLE_NARROW__ISO_
  5
320
 10
20.3517
 20
1.73937
 30
0.000000
  70
    32
  0
VERTEX
  8
VISIBLE_NARROW__ISO_
  5
321
 10
20.3534
 20
1.74997
 30
0.000000
  70
    32
  0
VERTEX
  8
VISIBLE_NARROW__ISO_
  5
322
 10
20.3549
 20
1.76058
 30
0.000000
  70
    32
  0
VERTEX
  8
VISIBLE_NARROW__ISO_
  5
323
 10
20.3562
 20
1.77121
 30
0.000000
  70
    32
  0
VERTEX
  8
VISIBLE_NARROW__ISO_
  5
324
 10
20.3575
 20
1.78185
 30
0.000000
  70
    32
  0
VERTEX
  8
VISIBLE_NARROW__ISO_
  5
325
 10
20.3586
 20
1.79251
 30
0.000000
  70
    32
  0
VERTEX
  8
VISIBLE_NARROW__ISO_
  5
326
 10
20.3596
 20
1.80319
 30
0.000000
  70
    32
  0
VERTEX
  8
VISIBLE_NARROW__ISO_
  5
327
 10
20.3604
 20
1.81387
 30
0.000000
  70
    32
  0
VERTEX
  8
VISIBLE_NARROW__ISO_
  5
328
 10
20.3612
 20
1.82457
 30
0.000000
  70
    32
  0
VERTEX
  8
VISIBLE_NARROW__ISO_
  5
329
 10
20.3618
 20
1.83527
 30
0.000000
  70
    32
  0
VERTEX
  8
VISIBLE_NARROW__ISO_
  5
32A
 10
20.3622
 20
1.84598
 30
0.000000
  70
    32
  0
VERTEX
  8
VISIBLE_NARROW__ISO_
  5
32B
 10
20.3625
 20
1.85670
 30
0.000000
  70
    32
  0
VERTEX
  8
VISIBLE_NARROW__ISO_
  5
32C
 10
20.3627
 20
1.86742
 30
0.000000
  70
    32
  0
VERTEX
  8
VISIBLE_NARROW__ISO_
  5
32D
 10
20.3628
 20
1.87814
 30
0.000000
  70
    32
  0
SEQEND
  8
VISIBLE_NARROW__ISO_
  5
32E
  0
LINE
  5
98
  8
VISIBLE_NARROW__ISO_
 10
20.3628052532615094
 20
1.8781375776813389
 30
0.0
 11
20.3628052532615094
 21
16.8323223316357904
 31
0.0
  0
VIEWPORT
  5
A2
 67
     1
  8
0
 10
8.4201347593762783
 20
5.5694631303841851
 30
0.0
 40
54.6642978993398714
 41
23.0220793076065995
 68
     1
 69
     1
1001
ACAD
1000
MVIEW
1002
{
1070
    16
1010
0.0
1020
0.0
1030
0.0
1010
0.0
1020
0.0
1030
1.0
1040
0.0
1040
23.0220793076065995
1040
8.4201347593762783
1040
5.5694631303841851
1040
50.0
1040
0.0
1040
0.0
1070
     0
1070
  1000
1070
     1
1070
     1
1070
     0
1070
     0
1070
     0
1070
     0
1040
0.0
1040
0.0
1040
0.0
1040
0.5
1040
0.5
1040
0.5
1040
0.5
1070
     0
1002
{
1002
}
1002
}
  0
POLYLINE
  5
B5
 67
     1
  8
VISIBLE_NARROW__ISO_
 10
15.1369221354035801
 20
14.5213316918496158
 30
0.0
 66
     1
 70
     8
  0
VERTEX
  8
VISIBLE_NARROW__ISO_
  5
32F
 10
15.1369
 20
14.5213
 30
0.000000
  70
    32
  0
VERTEX
  8
VISIBLE_NARROW__ISO_
  5
330
 10
15.1369
 20
14.5321
 30
0.000000
  70
    32
  0
VERTEX
  8
VISIBLE_NARROW__ISO_
  5
331
 10
15.1367
 20
14.5428
 30
0.000000
  70
    32
  0
VERTEX
  8
VISIBLE_NARROW__ISO_
  5
332
 10
15.1363
 20
14.5535
 30
0.000000
  70
    32
  0
VERTEX
  8
VISIBLE_NARROW__ISO_
  5
333
 10
15.1359
 20
14.5642
 30
0.000000
  70
    32
  0
VERTEX
  8
VISIBLE_NARROW__ISO_
  5
334
 10
15.1353
 20
14.5749
 30
0.000000
  70
    32
  0
VERTEX
  8
VISIBLE_NARROW__ISO_
  5
335
 10
15.1346
 20
14.5856
 30
0.000000
  70
    32
  0
VERTEX
  8
VISIBLE_NARROW__ISO_
  5
336
 10
15.1337
 20
14.5963
 30
0.000000
  70
    32
  0
VERTEX
  8
VISIBLE_NARROW__ISO_
  5
337
 10
15.1327
 20
14.6070
 30
0.000000
  70
    32
  0
VERTEX
  8
VISIBLE_NARROW__ISO_
  5
338
 10
15.1316
 20
14.6176
 30
0.000000
  70
    32
  0
VERTEX
  8
VISIBLE_NARROW__ISO_
  5
339
 10
15.1304
 20
14.6283
 30
0.000000
  70
    32
  0
VERTEX
  8
VISIBLE_NARROW__ISO_
  5
33A
 10
15.1290
 20
14.6389
 30
0.000000
  70
    32
  0
VERTEX
  8
VISIBLE_NARROW__ISO_
  5
33B
 10
15.1275
 20
14.6495
 30
0.000000
  70
    32
  0
VERTEX
  8
VISIBLE_NARROW__ISO_
  5
33C
 10
15.1258
 20
14.6601
 30
0.000000
  70
    32
  0
VERTEX
  8
VISIBLE_NARROW__ISO_
  5
33D
 10
15.1241
 20
14.6707
 30
0.000000
  70
    32
  0
VERTEX
  8
VISIBLE_NARROW__ISO_
  5
33E
 10
15.1222
 20
14.6812
 30
0.000000
  70
    32
  0
VERTEX
  8
VISIBLE_NARROW__ISO_
  5
33F
 10
15.1202
 20
14.6917
 30
0.000000
  70
    32
  0
VERTEX
  8
VISIBLE_NARROW__ISO_
  5
340
 10
15.1180
 20
14.7022
 30
0.000000
  70
    32
  0
VERTEX
  8
VISIBLE_NARROW__ISO_
  5
341
 10
15.1157
 20
14.7127
 30
0.000000
  70
    32
  0
VERTEX
  8
VISIBLE_NARROW__ISO_
  5
342
 10
15.1133
 20
14.7231
 30
0.000000
  70
    32
  0
VERTEX
  8
VISIBLE_NARROW__ISO_
  5
343
 10
15.1108
 20
14.7336
 30
0.000000
  70
    32
  0
VERTEX
  8
VISIBLE_NARROW__ISO_
  5
344
 10
15.1081
 20
14.7439
 30
0.000000
  70
    32
  0
VERTEX
  8
VISIBLE_NARROW__ISO_
  5
345
 10
15.1053
 20
14.7543
 30
0.000000
  70
    32
  0
VERTEX
  8
VISIBLE_NARROW__ISO_
  5
346
 10
15.1024
 20
14.7646
 30
0.000000
  70
    32
  0
VERTEX
  8
VISIBLE_NARROW__ISO_
  5
347
 10
15.0994
 20
14.7749
 30
0.000000
  70
    32
  0
VERTEX
  8
VISIBLE_NARROW__ISO_
  5
348
 10
15.0962
 20
14.7851
 30
0.000000
  70
    32
  0
VERTEX
  8
VISIBLE_NARROW__ISO_
  5
349
 10
15.0929
 20
14.7953
 30
0.000000
  70
    32
  0
VERTEX
  8
VISIBLE_NARROW__ISO_
  5
34A
 10
15.0895
 20
14.8054
 30
0.000000
  70
    32
  0
VERTEX
  8
VISIBLE_NARROW__ISO_
  5
34B
 10
15.0859
 20
14.8155
 30
0.000000
  70
    32
  0
VERTEX
  8
VISIBLE_NARROW__ISO_
  5
34C
 10
15.0823
 20
14.8256
 30
0.000000
  70
    32
  0
VERTEX
  8
VISIBLE_NARROW__ISO_
  5
34D
 10
15.0785
 20
14.8356
 30
0.000000
  70
    32
  0
VERTEX
  8
VISIBLE_NARROW__ISO_
  5
34E
 10
15.0746
 20
14.8456
 30
0.000000
  70
    32
  0
VERTEX
  8
VISIBLE_NARROW__ISO_
  5
34F
 10
15.0705
 20
14.8555
 30
0.000000
  70
    32
  0
VERTEX
  8
VISIBLE_NARROW__ISO_
  5
350
 10
15.0664
 20
14.8654
 30
0.000000
  70
    32
  0
VERTEX
  8
VISIBLE_NARROW__ISO_
  5
351
 10
15.0621
 20
14.8752
 30
0.000000
  70
    32
  0
VERTEX
  8
VISIBLE_NARROW__ISO_
  5
352
 10
15.0577
 20
14.8850
 30
0.000000
  70
    32
  0
VERTEX
  8
VISIBLE_NARROW__ISO_
  5
353
 10
15.0532
 20
14.8947
 30
0.000000
  70
    32
  0
VERTEX
  8
VISIBLE_NARROW__ISO_
  5
354
 10
15.0485
 20
14.9043
 30
0.000000
  70
    32
  0
VERTEX
  8
VISIBLE_NARROW__ISO_
  5
355
 10
15.0438
 20
14.9139
 30
0.000000
  70
    32
  0
VERTEX
  8
VISIBLE_NARROW__ISO_
  5
356
 10
15.0389
 20
14.9235
 30
0.000000
  70
    32
  0
VERTEX
  8
VISIBLE_NARROW__ISO_
  5
357
 10
15.0339
 20
14.9330
 30
0.000000
  70
    32
  0
VERTEX
  8
VISIBLE_NARROW__ISO_
  5
358
 10
15.0288
 20
14.9424
 30
0.000000
  70
    32
  0
VERTEX
  8
VISIBLE_NARROW__ISO_
  5
359
 10
15.0236
 20
14.9517
 30
0.000000
  70
    32
  0
VERTEX
  8
VISIBLE_NARROW__ISO_
  5
35A
 10
15.0183
 20
14.9610
 30
0.000000
  70
    32
  0
VERTEX
  8
VISIBLE_NARROW__ISO_
  5
35B
 10
15.0128
 20
14.9702
 30
0.000000
  70
    32
  0
VERTEX
  8
VISIBLE_NARROW__ISO_
  5
35C
 10
15.0073
 20
14.9794
 30
0.000000
  70
    32
  0
VERTEX
  8
VISIBLE_NARROW__ISO_
  5
35D
 10
15.0016
 20
14.9885
 30
0.000000
  70
    32
  0
VERTEX
  8
VISIBLE_NARROW__ISO_
  5
35E
 10
14.9958
 20
14.9975
 30
0.000000
  70
    32
  0
VERTEX
  8
VISIBLE_NARROW__ISO_
  5
35F
 10
14.9899
 20
15.0064
 30
0.000000
  70
    32
  0
VERTEX
  8
VISIBLE_NARROW__ISO_
  5
360
 10
14.9839
 20
15.0153
 30
0.000000
  70
    32
  0
VERTEX
  8
VISIBLE_NARROW__ISO_
  5
361
 10
14.9778
 20
15.0241
 30
0.000000
  70
    32
  0
VERTEX
  8
VISIBLE_NARROW__ISO_
  5
362
 10
14.9716
 20
15.0328
 30
0.000000
  70
    32
  0
VERTEX
  8
VISIBLE_NARROW__ISO_
  5
363
 10
14.9653
 20
15.0414
 30
0.000000
  70
    32
  0
VERTEX
  8
VISIBLE_NARROW__ISO_
  5
364
 10
14.9588
 20
15.0500
 30
0.000000
  70
    32
  0
VERTEX
  8
VISIBLE_NARROW__ISO_
  5
365
 10
14.9523
 20
15.0585
 30
0.000000
  70
    32
  0
VERTEX
  8
VISIBLE_NARROW__ISO_
  5
366
 10
14.9457
 20
15.0669
 30
0.000000
  70
    32
  0
VERTEX
  8
VISIBLE_NARROW__ISO_
  5
367
 10
14.9389
 20
15.0752
 30
0.000000
  70
    32
  0
VERTEX
  8
VISIBLE_NARROW__ISO_
  5
368
 10
14.9321
 20
15.0834
 30
0.000000
  70
    32
  0
VERTEX
  8
VISIBLE_NARROW__ISO_
  5
369
 10
14.9251
 20
15.0916
 30
0.000000
  70
    32
  0
VERTEX
  8
VISIBLE_NARROW__ISO_
  5
36A
 10
14.9181
 20
15.0997
 30
0.000000
  70
    32
  0
VERTEX
  8
VISIBLE_NARROW__ISO_
  5
36B
 10
14.9110
 20
15.1076
 30
0.000000
  70
    32
  0
VERTEX
  8
VISIBLE_NARROW__ISO_
  5
36C
 10
14.9037
 20
15.1155
 30
0.000000
  70
    32
  0
VERTEX
  8
VISIBLE_NARROW__ISO_
  5
36D
 10
14.8964
 20
15.1233
 30
0.000000
  70
    32
  0
VERTEX
  8
VISIBLE_NARROW__ISO_
  5
36E
 10
14.8889
 20
15.1310
 30
0.000000
  70
    32
  0
VERTEX
  8
VISIBLE_NARROW__ISO_
  5
36F
 10
14.8814
 20
15.1387
 30
0.000000
  70
    32
  0
VERTEX
  8
VISIBLE_NARROW__ISO_
  5
370
 10
14.8738
 20
15.1462
 30
0.000000
  70
    32
  0
VERTEX
  8
VISIBLE_NARROW__ISO_
  5
371
 10
14.8661
 20
15.1536
 30
0.000000
  70
    32
  0
VERTEX
  8
VISIBLE_NARROW__ISO_
  5
372
 10
14.8583
 20
15.1609
 30
0.000000
  70
    32
  0
VERTEX
  8
VISIBLE_NARROW__ISO_
  5
373
 10
14.8504
 20
15.1682
 30
0.000000
  70
    32
  0
VERTEX
  8
VISIBLE_NARROW__ISO_
  5
374
 10
14.8424
 20
15.1753
 30
0.000000
  70
    32
  0
VERTEX
  8
VISIBLE_NARROW__ISO_
  5
375
 10
14.8344
 20
15.1824
 30
0.000000
  70
    32
  0
VERTEX
  8
VISIBLE_NARROW__ISO_
  5
376
 10
14.8262
 20
15.1893
 30
0.000000
  70
    32
  0
VERTEX
  8
VISIBLE_NARROW__ISO_
  5
377
 10
14.8180
 20
15.1961
 30
0.000000
  70
    32
  0
VERTEX
  8
VISIBLE_NARROW__ISO_
  5
378
 10
14.8097
 20
15.2029
 30
0.000000
  70
    32
  0
VERTEX
  8
VISIBLE_NARROW__ISO_
  5
379
 10
14.8013
 20
15.2095
 30
0.000000
  70
    32
  0
VERTEX
  8
VISIBLE_NARROW__ISO_
  5
37A
 10
14.7928
 20
15.2161
 30
0.000000
  70
    32
  0
VERTEX
  8
VISIBLE_NARROW__ISO_
  5
37B
 10
14.7842
 20
15.2225
 30
0.000000
  70
    32
  0
VERTEX
  8
VISIBLE_NARROW__ISO_
  5
37C
 10
14.7756
 20
15.2288
 30
0.000000
  70
    32
  0
VERTEX
  8
VISIBLE_NARROW__ISO_
  5
37D
 10
14.7669
 20
15.2350
 30
0.000000
  70
    32
  0
VERTEX
  8
VISIBLE_NARROW__ISO_
  5
37E
 10
14.7581
 20
15.2411
 30
0.000000
  70
    32
  0
VERTEX
  8
VISIBLE_NARROW__ISO_
  5
37F
 10
14.7492
 20
15.2471
 30
0.000000
  70
    32
  0
VERTEX
  8
VISIBLE_NARROW__ISO_
  5
380
 10
14.7403
 20
15.2530
 30
0.000000
  70
    32
  0
VERTEX
  8
VISIBLE_NARROW__ISO_
  5
381
 10
14.7312
 20
15.2588
 30
0.000000
  70
    32
  0
VERTEX
  8
VISIBLE_NARROW__ISO_
  5
382
 10
14.7222
 20
15.2645
 30
0.000000
  70
    32
  0
VERTEX
  8
VISIBLE_NARROW__ISO_
  5
383
 10
14.7130
 20
15.2701
 30
0.000000
  70
    32
  0
VERTEX
  8
VISIBLE_NARROW__ISO_
  5
384
 10
14.7038
 20
15.2755
 30
0.000000
  70
    32
  0
VERTEX
  8
VISIBLE_NARROW__ISO_
  5
385
 10
14.6945
 20
15.2808
 30
0.000000
  70
    32
  0
VERTEX
  8
VISIBLE_NARROW__ISO_
  5
386
 10
14.6851
 20
15.2861
 30
0.000000
  70
    32
  0
VERTEX
  8
VISIBLE_NARROW__ISO_
  5
387
 10
14.6757
 20
15.2912
 30
0.000000
  70
    32
  0
VERTEX
  8
VISIBLE_NARROW__ISO_
  5
388
 10
14.6663
 20
15.2961
 30
0.000000
  70
    32
  0
VERTEX
  8
VISIBLE_NARROW__ISO_
  5
389
 10
14.6567
 20
15.3010
 30
0.000000
  70
    32
  0
VERTEX
  8
VISIBLE_NARROW__ISO_
  5
38A
 10
14.6471
 20
15.3058
 30
0.000000
  70
    32
  0
VERTEX
  8
VISIBLE_NARROW__ISO_
  5
38B
 10
14.6375
 20
15.3104
 30
0.000000
  70
    32
  0
VERTEX
  8
VISIBLE_NARROW__ISO_
  5
38C
 10
14.6278
 20
15.3149
 30
0.000000
  70
    32
  0
VERTEX
  8
VISIBLE_NARROW__ISO_
  5
38D
 10
14.6180
 20
15.3193
 30
0.000000
  70
    32
  0
VERTEX
  8
VISIBLE_NARROW__ISO_
  5
38E
 10
14.6082
 20
15.3236
 30
0.000000
  70
    32
  0
VERTEX
  8
VISIBLE_NARROW__ISO_
  5
38F
 10
14.5983
 20
15.3278
 30
0.000000
  70
    32
  0
VERTEX
  8
VISIBLE_NARROW__ISO_
  5
390
 10
14.5884
 20
15.3318
 30
0.000000
  70
    32
  0
VERTEX
  8
VISIBLE_NARROW__ISO_
  5
391
 10
14.5784
 20
15.3357
 30
0.000000
  70
    32
  0
VERTEX
  8
VISIBLE_NARROW__ISO_
  5
392
 10
14.5684
 20
15.3395
 30
0.000000
  70
    32
  0
VERTEX
  8
VISIBLE_NARROW__ISO_
  5
393
 10
14.5583
 20
15.3432
 30
0.000000
  70
    32
  0
VERTEX
  8
VISIBLE_NARROW__ISO_
  5
394
 10
14.5482
 20
15.3467
 30
0.000000
  70
    32
  0
VERTEX
  8
VISIBLE_NARROW__ISO_
  5
395
 10
14.5381
 20
15.3501
 30
0.000000
  70
    32
  0
VERTEX
  8
VISIBLE_NARROW__ISO_
  5
396
 10
14.5279
 20
15.3534
 30
0.000000
  70
    32
  0
VERTEX
  8
VISIBLE_NARROW__ISO_
  5
397
 10
14.5176
 20
15.3566
 30
0.000000
  70
    32
  0
VERTEX
  8
VISIBLE_NARROW__ISO_
  5
398
 10
14.5074
 20
15.3596
 30
0.000000
  70
    32
  0
VERTEX
  8
VISIBLE_NARROW__ISO_
  5
399
 10
14.4971
 20
15.3626
 30
0.000000
  70
    32
  0
VERTEX
  8
VISIBLE_NARROW__ISO_
  5
39A
 10
14.4867
 20
15.3653
 30
0.000000
  70
    32
  0
VERTEX
  8
VISIBLE_NARROW__ISO_
  5
39B
 10
14.4763
 20
15.3680
 30
0.000000
  70
    32
  0
VERTEX
  8
VISIBLE_NARROW__ISO_
  5
39C
 10
14.4659
 20
15.3705
 30
0.000000
  70
    32
  0
VERTEX
  8
VISIBLE_NARROW__ISO_
  5
39D
 10
14.4555
 20
15.3730
 30
0.000000
  70
    32
  0
VERTEX
  8
VISIBLE_NARROW__ISO_
  5
39E
 10
14.4450
 20
15.3752
 30
0.000000
  70
    32
  0
VERTEX
  8
VISIBLE_NARROW__ISO_
  5
39F
 10
14.4345
 20
15.3774
 30
0.000000
  70
    32
  0
VERTEX
  8
VISIBLE_NARROW__ISO_
  5
3A0
 10
14.4240
 20
15.3794
 30
0.000000
  70
    32
  0
VERTEX
  8
VISIBLE_NARROW__ISO_
  5
3A1
 10
14.4134
 20
15.3813
 30
0.000000
  70
    32
  0
VERTEX
  8
VISIBLE_NARROW__ISO_
  5
3A2
 10
14.4029
 20
15.3831
 30
0.000000
  70
    32
  0
VERTEX
  8
VISIBLE_NARROW__ISO_
  5
3A3
 10
14.3923
 20
15.3847
 30
0.000000
  70
    32
  0
VERTEX
  8
VISIBLE_NARROW__ISO_
  5
3A4
 10
14.3817
 20
15.3862
 30
0.000000
  70
    32
  0
VERTEX
  8
VISIBLE_NARROW__ISO_
  5
3A5
 10
14.3710
 20
15.3876
 30
0.000000
  70
    32
  0
VERTEX
  8
VISIBLE_NARROW__ISO_
  5
3A6
 10
14.3604
 20
15.3888
 30
0.000000
  70
    32
  0
VERTEX
  8
VISIBLE_NARROW__ISO_
  5
3A7
 10
14.3497
 20
15.3899
 30
0.000000
  70
    32
  0
VERTEX
  8
VISIBLE_NARROW__ISO_
  5
3A8
 10
14.3391
 20
15.3909
 30
0.000000
  70
    32
  0
VERTEX
  8
VISIBLE_NARROW__ISO_
  5
3A9
 10
14.3284
 20
15.3918
 30
0.000000
  70
    32
  0
VERTEX
  8
VISIBLE_NARROW__ISO_
  5
3AA
 10
14.3177
 20
15.3925
 30
0.000000
  70
    32
  0
VERTEX
  8
VISIBLE_NARROW__ISO_
  5
3AB
 10
14.3070
 20
15.3931
 30
0.000000
  70
    32
  0
VERTEX
  8
VISIBLE_NARROW__ISO_
  5
3AC
 10
14.2963
 20
15.3936
 30
0.000000
  70
    32
  0
VERTEX
  8
VISIBLE_NARROW__ISO_
  5
3AD
 10
14.2855
 20
15.3939
 30
0.000000
  70
    32
  0
VERTEX
  8
VISIBLE_NARROW__ISO_
  5
3AE
 10
14.2748
 20
15.3941
 30
0.000000
  70
    32
  0
VERTEX
  8
VISIBLE_NARROW__ISO_
  5
3AF
 10
14.2641
 20
15.3941
 30
0.000000
  70
    32
  0
SEQEND
  8
VISIBLE_NARROW__ISO_
  5
3B0
  0
LINE
  5
B6
 67
     1
  8
VISIBLE_NARROW__ISO_
 10
14.2641041955788896
 20
15.3941496316744804
 30
0.0
 11
1.8689745597347731
 21
15.3941496316744804
 31
0.0
  0
POLYLINE
  5
B7
 67
     1
  8
VISIBLE_NARROW__ISO_
 10
1.8689745597344902
 20
15.3941496316744804
 30
0.0
 66
     1
 70
     8
  0
VERTEX
  8
VISIBLE_NARROW__ISO_
  5
3B1
 10
1.86897
 20
15.3941
 30
0.000000
  70
    32
  0
VERTEX
  8
VISIBLE_NARROW__ISO_
  5
3B2
 10
1.85825
 20
15.3941
 30
0.000000
  70
    32
  0
VERTEX
  8
VISIBLE_NARROW__ISO_
  5
3B3
 10
1.84753
 20
15.3939
 30
0.000000
  70
    32
  0
VERTEX
  8
VISIBLE_NARROW__ISO_
  5
3B4
 10
1.83682
 20
15.3936
 30
0.000000
  70
    32
  0
VERTEX
  8
VISIBLE_NARROW__ISO_
  5
3B5
 10
1.82611
 20
15.3931
 30
0.000000
  70
    32
  0
VERTEX
  8
VISIBLE_NARROW__ISO_
  5
3B6
 10
1.81540
 20
15.3925
 30
0.000000
  70
    32
  0
VERTEX
  8
VISIBLE_NARROW__ISO_
  5
3B7
 10
1.80471
 20
15.3918
 30
0.000000
  70
    32
  0
VERTEX
  8
VISIBLE_NARROW__ISO_
  5
3B8
 10
1.79402
 20
15.3909
 30
0.000000
  70
    32
  0
VERTEX
  8
VISIBLE_NARROW__ISO_
  5
3B9
 10
1.78335
 20
15.3899
 30
0.000000
  70
    32
  0
VERTEX
  8
VISIBLE_NARROW__ISO_
  5
3BA
 10
1.77269
 20
15.3888
 30
0.000000
  70
    32
  0
VERTEX
  8
VISIBLE_NARROW__ISO_
  5
3BB
 10
1.76204
 20
15.3876
 30
0.000000
  70
    32
  0
VERTEX
  8
VISIBLE_NARROW__ISO_
  5
3BC
 10
1.75141
 20
15.3862
 30
0.000000
  70
    32
  0
VERTEX
  8
VISIBLE_NARROW__ISO_
  5
3BD
 10
1.74080
 20
15.3847
 30
0.000000
  70
    32
  0
VERTEX
  8
VISIBLE_NARROW__ISO_
  5
3BE
 10
1.73021
 20
15.3831
 30
0.000000
  70
    32
  0
VERTEX
  8
VISIBLE_NARROW__ISO_
  5
3BF
 10
1.71964
 20
15.3813
 30
0.000000
  70
    32
  0
VERTEX
  8
VISIBLE_NARROW__ISO_
  5
3C0
 10
1.70909
 20
15.3794
 30
0.000000
  70
    32
  0
VERTEX
  8
VISIBLE_NARROW__ISO_
  5
3C1
 10
1.69857
 20
15.3774
 30
0.000000
  70
    32
  0
VERTEX
  8
VISIBLE_NARROW__ISO_
  5
3C2
 10
1.68807
 20
15.3752
 30
0.000000
  70
    32
  0
VERTEX
  8
VISIBLE_NARROW__ISO_
  5
3C3
 10
1.67760
 20
15.3730
 30
0.000000
  70
    32
  0
VERTEX
  8
VISIBLE_NARROW__ISO_
  5
3C4
 10
1.66716
 20
15.3705
 30
0.000000
  70
    32
  0
VERTEX
  8
VISIBLE_NARROW__ISO_
  5
3C5
 10
1.65675
 20
15.3680
 30
0.000000
  70
    32
  0
VERTEX
  8
VISIBLE_NARROW__ISO_
  5
3C6
 10
1.64637
 20
15.3653
 30
0.000000
  70
    32
  0
VERTEX
  8
VISIBLE_NARROW__ISO_
  5
3C7
 10
1.63603
 20
15.3626
 30
0.000000
  70
    32
  0
VERTEX
  8
VISIBLE_NARROW__ISO_
  5
3C8
 10
1.62572
 20
15.3596
 30
0.000000
  70
    32
  0
VERTEX
  8
VISIBLE_NARROW__ISO_
  5
3C9
 10
1.61545
 20
15.3566
 30
0.000000
  70
    32
  0
VERTEX
  8
VISIBLE_NARROW__ISO_
  5
3CA
 10
1.60521
 20
15.3534
 30
0.000000
  70
    32
  0
VERTEX
  8
VISIBLE_NARROW__ISO_
  5
3CB
 10
1.59502
 20
15.3501
 30
0.000000
  70
    32
  0
VERTEX
  8
VISIBLE_NARROW__ISO_
  5
3CC
 10
1.58487
 20
15.3467
 30
0.000000
  70
    32
  0
VERTEX
  8
VISIBLE_NARROW__ISO_
  5
3CD
 10
1.57476
 20
15.3432
 30
0.000000
  70
    32
  0
VERTEX
  8
VISIBLE_NARROW__ISO_
  5
3CE
 10
1.56469
 20
15.3395
 30
0.000000
  70
    32
  0
VERTEX
  8
VISIBLE_NARROW__ISO_
  5
3CF
 10
1.55467
 20
15.3357
 30
0.000000
  70
    32
  0
VERTEX
  8
VISIBLE_NARROW__ISO_
  5
3D0
 10
1.54470
 20
15.3318
 30
0.000000
  70
    32
  0
VERTEX
  8
VISIBLE_NARROW__ISO_
  5
3D1
 10
1.53478
 20
15.3278
 30
0.000000
  70
    32
  0
VERTEX
  8
VISIBLE_NARROW__ISO_
  5
3D2
 10
1.52491
 20
15.3236
 30
0.000000
  70
    32
  0
VERTEX
  8
VISIBLE_NARROW__ISO_
  5
3D3
 10
1.51509
 20
15.3193
 30
0.000000
  70
    32
  0
VERTEX
  8
VISIBLE_NARROW__ISO_
  5
3D4
 10
1.50532
 20
15.3149
 30
0.000000
  70
    32
  0
VERTEX
  8
VISIBLE_NARROW__ISO_
  5
3D5
 10
1.49561
 20
15.3104
 30
0.000000
  70
    32
  0
VERTEX
  8
VISIBLE_NARROW__ISO_
  5
3D6
 10
1.48596
 20
15.3058
 30
0.000000
  70
    32
  0
VERTEX
  8
VISIBLE_NARROW__ISO_
  5
3D7
 10
1.47636
 20
15.3010
 30
0.000000
  70
    32
  0
VERTEX
  8
VISIBLE_NARROW__ISO_
  5
3D8
 10
1.46682
 20
15.2961
 30
0.000000
  70
    32
  0
VERTEX
  8
VISIBLE_NARROW__ISO_
  5
3D9
 10
1.45735
 20
15.2912
 30
0.000000
  70
    32
  0
VERTEX
  8
VISIBLE_NARROW__ISO_
  5
3DA
 10
1.44793
 20
15.2861
 30
0.000000
  70
    32
  0
VERTEX
  8
VISIBLE_NARROW__ISO_
  5
3DB
 10
1.43858
 20
15.2808
 30
0.000000
  70
    32
  0
VERTEX
  8
VISIBLE_NARROW__ISO_
  5
3DC
 10
1.42929
 20
15.2755
 30
0.000000
  70
    32
  0
VERTEX
  8
VISIBLE_NARROW__ISO_
  5
3DD
 10
1.42007
 20
15.2701
 30
0.000000
  70
    32
  0
VERTEX
  8
VISIBLE_NARROW__ISO_
  5
3DE
 10
1.41092
 20
15.2645
 30
0.000000
  70
    32
  0
VERTEX
  8
VISIBLE_NARROW__ISO_
  5
3DF
 10
1.40184
 20
15.2588
 30
0.000000
  70
    32
  0
VERTEX
  8
VISIBLE_NARROW__ISO_
  5
3E0
 10
1.39282
 20
15.2530
 30
0.000000
  70
    32
  0
VERTEX
  8
VISIBLE_NARROW__ISO_
  5
3E1
 10
1.38388
 20
15.2471
 30
0.000000
  70
    32
  0
VERTEX
  8
VISIBLE_NARROW__ISO_
  5
3E2
 10
1.37502
 20
15.2411
 30
0.000000
  70
    32
  0
VERTEX
  8
VISIBLE_NARROW__ISO_
  5
3E3
 10
1.36622
 20
15.2350
 30
0.000000
  70
    32
  0
VERTEX
  8
VISIBLE_NARROW__ISO_
  5
3E4
 10
1.35750
 20
15.2288
 30
0.000000
  70
    32
  0
VERTEX
  8
VISIBLE_NARROW__ISO_
  5
3E5
 10
1.34886
 20
15.2225
 30
0.000000
  70
    32
  0
VERTEX
  8
VISIBLE_NARROW__ISO_
  5
3E6
 10
1.34030
 20
15.2161
 30
0.000000
  70
    32
  0
VERTEX
  8
VISIBLE_NARROW__ISO_
  5
3E7
 10
1.33182
 20
15.2095
 30
0.000000
  70
    32
  0
VERTEX
  8
VISIBLE_NARROW__ISO_
  5
3E8
 10
1.32342
 20
15.2029
 30
0.000000
  70
    32
  0
VERTEX
  8
VISIBLE_NARROW__ISO_
  5
3E9
 10
1.31510
 20
15.1961
 30
0.000000
  70
    32
  0
VERTEX
  8
VISIBLE_NARROW__ISO_
  5
3EA
 10
1.30686
 20
15.1893
 30
0.000000
  70
    32
  0
VERTEX
  8
VISIBLE_NARROW__ISO_
  5
3EB
 10
1.29871
 20
15.1824
 30
0.000000
  70
    32
  0
VERTEX
  8
VISIBLE_NARROW__ISO_
  5
3EC
 10
1.29065
 20
15.1753
 30
0.000000
  70
    32
  0
VERTEX
  8
VISIBLE_NARROW__ISO_
  5
3ED
 10
1.28267
 20
15.1682
 30
0.000000
  70
    32
  0
VERTEX
  8
VISIBLE_NARROW__ISO_
  5
3EE
 10
1.27478
 20
15.1609
 30
0.000000
  70
    32
  0
VERTEX
  8
VISIBLE_NARROW__ISO_
  5
3EF
 10
1.26698
 20
15.1536
 30
0.000000
  70
    32
  0
VERTEX
  8
VISIBLE_NARROW__ISO_
  5
3F0
 10
1.25927
 20
15.1462
 30
0.000000
  70
    32
  0
VERTEX
  8
VISIBLE_NARROW__ISO_
  5
3F1
 10
1.25165
 20
15.1387
 30
0.000000
  70
    32
  0
VERTEX
  8
VISIBLE_NARROW__ISO_
  5
3F2
 10
1.24413
 20
15.1310
 30
0.000000
  70
    32
  0
VERTEX
  8
VISIBLE_NARROW__ISO_
  5
3F3
 10
1.23670
 20
15.1233
 30
0.000000
  70
    32
  0
VERTEX
  8
VISIBLE_NARROW__ISO_
  5
3F4
 10
1.22936
 20
15.1155
 30
0.000000
  70
    32
  0
VERTEX
  8
VISIBLE_NARROW__ISO_
  5
3F5
 10
1.22213
 20
15.1076
 30
0.000000
  70
    32
  0
VERTEX
  8
VISIBLE_NARROW__ISO_
  5
3F6
 10
1.21498
 20
15.0997
 30
0.000000
  70
    32
  0
VERTEX
  8
VISIBLE_NARROW__ISO_
  5
3F7
 10
1.20794
 20
15.0916
 30
0.000000
  70
    32
  0
VERTEX
  8
VISIBLE_NARROW__ISO_
  5
3F8
 10
1.20100
 20
15.0834
 30
0.000000
  70
    32
  0
VERTEX
  8
VISIBLE_NARROW__ISO_
  5
3F9
 10
1.19416
 20
15.0752
 30
0.000000
  70
    32
  0
VERTEX
  8
VISIBLE_NARROW__ISO_
  5
3FA
 10
1.18742
 20
15.0669
 30
0.000000
  70
    32
  0
VERTEX
  8
VISIBLE_NARROW__ISO_
  5
3FB
 10
1.18078
 20
15.0585
 30
0.000000
  70
    32
  0
VERTEX
  8
VISIBLE_NARROW__ISO_
  5
3FC
 10
1.17424
 20
15.0500
 30
0.000000
  70
    32
  0
VERTEX
  8
VISIBLE_NARROW__ISO_
  5
3FD
 10
1.16781
 20
15.0414
 30
0.000000
  70
    32
  0
VERTEX
  8
VISIBLE_NARROW__ISO_
  5
3FE
 10
1.16149
 20
15.0328
 30
0.000000
  70
    32
  0
VERTEX
  8
VISIBLE_NARROW__ISO_
  5
3FF
 10
1.15527
 20
15.0241
 30
0.000000
  70
    32
  0
VERTEX
  8
VISIBLE_NARROW__ISO_
  5
400
 10
1.14916
 20
15.0153
 30
0.000000
  70
    32
  0
VERTEX
  8
VISIBLE_NARROW__ISO_
  5
401
 10
1.14316
 20
15.0064
 30
0.000000
  70
    32
  0
VERTEX
  8
VISIBLE_NARROW__ISO_
  5
402
 10
1.13727
 20
14.9975
 30
0.000000
  70
    32
  0
VERTEX
  8
VISIBLE_NARROW__ISO_
  5
403
 10
1.13148
 20
14.9885
 30
0.000000
  70
    32
  0
VERTEX
  8
VISIBLE_NARROW__ISO_
  5
404
 10
1.12581
 20
14.9794
 30
0.000000
  70
    32
  0
VERTEX
  8
VISIBLE_NARROW__ISO_
  5
405
 10
1.12025
 20
14.9702
 30
0.000000
  70
    32
  0
VERTEX
  8
VISIBLE_NARROW__ISO_
  5
406
 10
1.11480
 20
14.9610
 30
0.000000
  70
    32
  0
VERTEX
  8
VISIBLE_NARROW__ISO_
  5
407
 10
1.10947
 20
14.9517
 30
0.000000
  70
    32
  0
VERTEX
  8
VISIBLE_NARROW__ISO_
  5
408
 10
1.10425
 20
14.9424
 30
0.000000
  70
    32
  0
VERTEX
  8
VISIBLE_NARROW__ISO_
  5
409
 10
1.09915
 20
14.9330
 30
0.000000
  70
    32
  0
VERTEX
  8
VISIBLE_NARROW__ISO_
  5
40A
 10
1.09416
 20
14.9235
 30
0.000000
  70
    32
  0
VERTEX
  8
VISIBLE_NARROW__ISO_
  5
40B
 10
1.08929
 20
14.9139
 30
0.000000
  70
    32
  0
VERTEX
  8
VISIBLE_NARROW__ISO_
  5
40C
 10
1.08453
 20
14.9043
 30
0.000000
  70
    32
  0
VERTEX
  8
VISIBLE_NARROW__ISO_
  5
40D
 10
1.07990
 20
14.8947
 30
0.000000
  70
    32
  0
VERTEX
  8
VISIBLE_NARROW__ISO_
  5
40E
 10
1.07538
 20
14.8850
 30
0.000000
  70
    32
  0
VERTEX
  8
VISIBLE_NARROW__ISO_
  5
40F
 10
1.07098
 20
14.8752
 30
0.000000
  70
    32
  0
VERTEX
  8
VISIBLE_NARROW__ISO_
  5
410
 10
1.06671
 20
14.8654
 30
0.000000
  70
    32
  0
VERTEX
  8
VISIBLE_NARROW__ISO_
  5
411
 10
1.06255
 20
14.8555
 30
0.000000
  70
    32
  0
VERTEX
  8
VISIBLE_NARROW__ISO_
  5
412
 10
1.05851
 20
14.8456
 30
0.000000
  70
    32
  0
VERTEX
  8
VISIBLE_NARROW__ISO_
  5
413
 10
1.05460
 20
14.8356
 30
0.000000
  70
    32
  0
VERTEX
  8
VISIBLE_NARROW__ISO_
  5
414
 10
1.05081
 20
14.8256
 30
0.000000
  70
    32
  0
VERTEX
  8
VISIBLE_NARROW__ISO_
  5
415
 10
1.04714
 20
14.8155
 30
0.000000
  70
    32
  0
VERTEX
  8
VISIBLE_NARROW__ISO_
  5
416
 10
1.04360
 20
14.8054
 30
0.000000
  70
    32
  0
VERTEX
  8
VISIBLE_NARROW__ISO_
  5
417
 10
1.04018
 20
14.7953
 30
0.000000
  70
    32
  0
VERTEX
  8
VISIBLE_NARROW__ISO_
  5
418
 10
1.03688
 20
14.7851
 30
0.000000
  70
    32
  0
VERTEX
  8
VISIBLE_NARROW__ISO_
  5
419
 10
1.03371
 20
14.7749
 30
0.000000
  70
    32
  0
VERTEX
  8
VISIBLE_NARROW__ISO_
  5
41A
 10
1.03067
 20
14.7646
 30
0.000000
  70
    32
  0
VERTEX
  8
VISIBLE_NARROW__ISO_
  5
41B
 10
1.02775
 20
14.7543
 30
0.000000
  70
    32
  0
VERTEX
  8
VISIBLE_NARROW__ISO_
  5
41C
 10
1.02496
 20
14.7439
 30
0.000000
  70
    32
  0
VERTEX
  8
VISIBLE_NARROW__ISO_
  5
41D
 10
1.02229
 20
14.7336
 30
0.000000
  70
    32
  0
VERTEX
  8
VISIBLE_NARROW__ISO_
  5
41E
 10
1.01976
 20
14.7231
 30
0.000000
  70
    32
  0
VERTEX
  8
VISIBLE_NARROW__ISO_
  5
41F
 10
1.01735
 20
14.7127
 30
0.000000
  70
    32
  0
VERTEX
  8
VISIBLE_NARROW__ISO_
  5
420
 10
1.01507
 20
14.7022
 30
0.000000
  70
    32
  0
VERTEX
  8
VISIBLE_NARROW__ISO_
  5
421
 10
1.01292
 20
14.6917
 30
0.000000
  70
    32
  0
VERTEX
  8
VISIBLE_NARROW__ISO_
  5
422
 10
1.01089
 20
14.6812
 30
0.000000
  70
    32
  0
VERTEX
  8
VISIBLE_NARROW__ISO_
  5
423
 10
1.00900
 20
14.6707
 30
0.000000
  70
    32
  0
VERTEX
  8
VISIBLE_NARROW__ISO_
  5
424
 10
1.00723
 20
14.6601
 30
0.000000
  70
    32
  0
VERTEX
  8
VISIBLE_NARROW__ISO_
  5
425
 10
1.00560
 20
14.6495
 30
0.000000
  70
    32
  0
VERTEX
  8
VISIBLE_NARROW__ISO_
  5
426
 10
1.00409
 20
14.6389
 30
0.000000
  70
    32
  0
VERTEX
  8
VISIBLE_NARROW__ISO_
  5
427
 10
1.00272
 20
14.6283
 30
0.000000
  70
    32
  0
VERTEX
  8
VISIBLE_NARROW__ISO_
  5
428
 10
1.00147
 20
14.6176
 30
0.000000
  70
    32
  0
VERTEX
  8
VISIBLE_NARROW__ISO_
  5
429
 10
1.00036
 20
14.6070
 30
0.000000
  70
    32
  0
VERTEX
  8
VISIBLE_NARROW__ISO_
  5
42A
 10
0.999373
 20
14.5963
 30
0.000000
  70
    32
  0
VERTEX
  8
VISIBLE_NARROW__ISO_
  5
42B
 10
0.998520
 20
14.5856
 30
0.000000
  70
    32
  0
VERTEX
  8
VISIBLE_NARROW__ISO_
  5
42C
 10
0.997798
 20
14.5749
 30
0.000000
  70
    32
  0
VERTEX
  8
VISIBLE_NARROW__ISO_
  5
42D
 10
0.997207
 20
14.5642
 30
0.000000
  70
    32
  0
VERTEX
  8
VISIBLE_NARROW__ISO_
  5
42E
 10
0.996748
 20
14.5535
 30
0.000000
  70
    32
  0
VERTEX
  8
VISIBLE_NARROW__ISO_
  5
42F
 10
0.996419
 20
14.5428
 30
0.000000
  70
    32
  0
VERTEX
  8
VISIBLE_NARROW__ISO_
  5
430
 10
0.996222
 20
14.5321
 30
0.000000
  70
    32
  0
VERTEX
  8
VISIBLE_NARROW__ISO_
  5
431
 10
0.996157
 20
14.5213
 30
0.000000
  70
    32
  0
SEQEND
  8
VISIBLE_NARROW__ISO_
  5
432
  0
LINE
  5
B8
 67
     1
  8
VISIBLE_NARROW__ISO_
 10
0.9961566199098471
 20
14.5213316918495501
 30
0.0
 11
0.9961566199098471
 21
-0.432853062104897
 31
0.0
  0
POLYLINE
  5
B9
 67
     1
  8
VISIBLE_NARROW__ISO_
 10
0.9961566199096217
 20
-0.4328530621048443
 30
0.0
 66
     1
 70
     8
  0
VERTEX
  8
VISIBLE_NARROW__ISO_
  5
433
 10
0.996157
 20
-0.432853
 30
0.000000
  70
    32
  0
VERTEX
  8
VISIBLE_NARROW__ISO_
  5
434
 10
0.996222
 20
-0.443574
 30
0.000000
  70
    32
  0
VERTEX
  8
VISIBLE_NARROW__ISO_
  5
435
 10
0.996419
 20
-0.454294
 30
0.000000
  70
    32
  0
VERTEX
  8
VISIBLE_NARROW__ISO_
  5
436
 10
0.996748
 20
-0.465009
 30
0.000000
  70
    32
  0
VERTEX
  8
VISIBLE_NARROW__ISO_
  5
437
 10
0.997207
 20
-0.475720
 30
0.000000
  70
    32
  0
VERTEX
  8
VISIBLE_NARROW__ISO_
  5
438
 10
0.997798
 20
-0.486424
 30
0.000000
  70
    32
  0
VERTEX
  8
VISIBLE_NARROW__ISO_
  5
439
 10
0.998520
 20
-0.497119
 30
0.000000
  70
    32
  0
VERTEX
  8
VISIBLE_NARROW__ISO_
  5
43A
 10
0.999373
 20
-0.507804
 30
0.000000
  70
    32
  0
VERTEX
  8
VISIBLE_NARROW__ISO_
  5
43B
 10
1.00036
 20
-0.518478
 30
0.000000
  70
    32
  0
VERTEX
  8
VISIBLE_NARROW__ISO_
  5
43C
 10
1.00147
 20
-0.529139
 30
0.000000
  70
    32
  0
VERTEX
  8
VISIBLE_NARROW__ISO_
  5
43D
 10
1.00272
 20
-0.539784
 30
0.000000
  70
    32
  0
VERTEX
  8
VISIBLE_NARROW__ISO_
  5
43E
 10
1.00409
 20
-0.550414
 30
0.000000
  70
    32
  0
VERTEX
  8
VISIBLE_NARROW__ISO_
  5
43F
 10
1.00560
 20
-0.561025
 30
0.000000
  70
    32
  0
VERTEX
  8
VISIBLE_NARROW__ISO_
  5
440
 10
1.00723
 20
-0.571617
 30
0.000000
  70
    32
  0
VERTEX
  8
VISIBLE_NARROW__ISO_
  5
441
 10
1.00900
 20
-0.582187
 30
0.000000
  70
    32
  0
VERTEX
  8
VISIBLE_NARROW__ISO_
  5
442
 10
1.01089
 20
-0.592735
 30
0.000000
  70
    32
  0
VERTEX
  8
VISIBLE_NARROW__ISO_
  5
443
 10
1.01292
 20
-0.603259
 30
0.000000
  70
    32
  0
VERTEX
  8
VISIBLE_NARROW__ISO_
  5
444
 10
1.01507
 20
-0.613756
 30
0.000000
  70
    32
  0
VERTEX
  8
VISIBLE_NARROW__ISO_
  5
445
 10
1.01735
 20
-0.624226
 30
0.000000
  70
    32
  0
VERTEX
  8
VISIBLE_NARROW__ISO_
  5
446
 10
1.01976
 20
-0.634667
 30
0.000000
  70
    32
  0
VERTEX
  8
VISIBLE_NARROW__ISO_
  5
447
 10
1.02229
 20
-0.645077
 30
0.000000
  70
    32
  0
VERTEX
  8
VISIBLE_NARROW__ISO_
  5
448
 10
1.02496
 20
-0.655455
 30
0.000000
  70
    32
  0
VERTEX
  8
VISIBLE_NARROW__ISO_
  5
449
 10
1.02775
 20
-0.665800
 30
0.000000
  70
    32
  0
VERTEX
  8
VISIBLE_NARROW__ISO_
  5
44A
 10
1.03067
 20
-0.676109
 30
0.000000
  70
    32
  0
VERTEX
  8
VISIBLE_NARROW__ISO_
  5
44B
 10
1.03371
 20
-0.686381
 30
0.000000
  70
    32
  0
VERTEX
  8
VISIBLE_NARROW__ISO_
  5
44C
 10
1.03688
 20
-0.696614
 30
0.000000
  70
    32
  0
VERTEX
  8
VISIBLE_NARROW__ISO_
  5
44D
 10
1.04018
 20
-0.706808
 30
0.000000
  70
    32
  0
VERTEX
  8
VISIBLE_NARROW__ISO_
  5
44E
 10
1.04360
 20
-0.716960
 30
0.000000
  70
    32
  0
VERTEX
  8
VISIBLE_NARROW__ISO_
  5
44F
 10
1.04714
 20
-0.727070
 30
0.000000
  70
    32
  0
VERTEX
  8
VISIBLE_NARROW__ISO_
  5
450
 10
1.05081
 20
-0.737134
 30
0.000000
  70
    32
  0
VERTEX
  8
VISIBLE_NARROW__ISO_
  5
451
 10
1.05460
 20
-0.747153
 30
0.000000
  70
    32
  0
VERTEX
  8
VISIBLE_NARROW__ISO_
  5
452
 10
1.05851
 20
-0.757124
 30
0.000000
  70
    32
  0
VERTEX
  8
VISIBLE_NARROW__ISO_
  5
453
 10
1.06255
 20
-0.767047
 30
0.000000
  70
    32
  0
VERTEX
  8
VISIBLE_NARROW__ISO_
  5
454
 10
1.06671
 20
-0.776918
 30
0.000000
  70
    32
  0
VERTEX
  8
VISIBLE_NARROW__ISO_
  5
455
 10
1.07098
 20
-0.786738
 30
0.000000
  70
    32
  0
VERTEX
  8
VISIBLE_NARROW__ISO_
  5
456
 10
1.07538
 20
-0.796504
 30
0.000000
  70
    32
  0
VERTEX
  8
VISIBLE_NARROW__ISO_
  5
457
 10
1.07990
 20
-0.806215
 30
0.000000
  70
    32
  0
VERTEX
  8
VISIBLE_NARROW__ISO_
  5
458
 10
1.08453
 20
-0.815870
 30
0.000000
  70
    32
  0
VERTEX
  8
VISIBLE_NARROW__ISO_
  5
459
 10
1.08929
 20
-0.825467
 30
0.000000
  70
    32
  0
VERTEX
  8
VISIBLE_NARROW__ISO_
  5
45A
 10
1.09416
 20
-0.835005
 30
0.000000
  70
    32
  0
VERTEX
  8
VISIBLE_NARROW__ISO_
  5
45B
 10
1.09915
 20
-0.844482
 30
0.000000
  70
    32
  0
VERTEX
  8
VISIBLE_NARROW__ISO_
  5
45C
 10
1.10425
 20
-0.853897
 30
0.000000
  70
    32
  0
VERTEX
  8
VISIBLE_NARROW__ISO_
  5
45D
 10
1.10947
 20
-0.863248
 30
0.000000
  70
    32
  0
VERTEX
  8
VISIBLE_NARROW__ISO_
  5
45E
 10
1.11480
 20
-0.872535
 30
0.000000
  70
    32
  0
VERTEX
  8
VISIBLE_NARROW__ISO_
  5
45F
 10
1.12025
 20
-0.881755
 30
0.000000
  70
    32
  0
VERTEX
  8
VISIBLE_NARROW__ISO_
  5
460
 10
1.12581
 20
-0.890907
 30
0.000000
  70
    32
  0
VERTEX
  8
VISIBLE_NARROW__ISO_
  5
461
 10
1.13148
 20
-0.899991
 30
0.000000
  70
    32
  0
VERTEX
  8
VISIBLE_NARROW__ISO_
  5
462
 10
1.13727
 20
-0.909003
 30
0.000000
  70
    32
  0
VERTEX
  8
VISIBLE_NARROW__ISO_
  5
463
 10
1.14316
 20
-0.917944
 30
0.000000
  70
    32
  0
VERTEX
  8
VISIBLE_NARROW__ISO_
  5
464
 10
1.14916
 20
-0.926812
 30
0.000000
  70
    32
  0
VERTEX
  8
VISIBLE_NARROW__ISO_
  5
465
 10
1.15527
 20
-0.935606
 30
0.000000
  70
    32
  0
VERTEX
  8
VISIBLE_NARROW__ISO_
  5
466
 10
1.16149
 20
-0.944323
 30
0.000000
  70
    32
  0
VERTEX
  8
VISIBLE_NARROW__ISO_
  5
467
 10
1.16781
 20
-0.952963
 30
0.000000
  70
    32
  0
VERTEX
  8
VISIBLE_NARROW__ISO_
  5
468
 10
1.17424
 20
-0.961525
 30
0.000000
  70
    32
  0
VERTEX
  8
VISIBLE_NARROW__ISO_
  5
469
 10
1.18078
 20
-0.970008
 30
0.000000
  70
    32
  0
VERTEX
  8
VISIBLE_NARROW__ISO_
  5
46A
 10
1.18742
 20
-0.978409
 30
0.000000
  70
    32
  0
VERTEX
  8
VISIBLE_NARROW__ISO_
  5
46B
 10
1.19416
 20
-0.986728
 30
0.000000
  70
    32
  0
VERTEX
  8
VISIBLE_NARROW__ISO_
  5
46C
 10
1.20100
 20
-0.994964
 30
0.000000
  70
    32
  0
VERTEX
  8
VISIBLE_NARROW__ISO_
  5
46D
 10
1.20794
 20
-1.00311
 30
0.000000
  70
    32
  0
VERTEX
  8
VISIBLE_NARROW__ISO_
  5
46E
 10
1.21498
 20
-1.01118
 30
0.000000
  70
    32
  0
VERTEX
  8
VISIBLE_NARROW__ISO_
  5
46F
 10
1.22213
 20
-1.01916
 30
0.000000
  70
    32
  0
VERTEX
  8
VISIBLE_NARROW__ISO_
  5
470
 10
1.22936
 20
-1.02705
 30
0.000000
  70
    32
  0
VERTEX
  8
VISIBLE_NARROW__ISO_
  5
471
 10
1.23670
 20
-1.03485
 30
0.000000
  70
    32
  0
VERTEX
  8
VISIBLE_NARROW__ISO_
  5
472
 10
1.24413
 20
-1.04256
 30
0.000000
  70
    32
  0
VERTEX
  8
VISIBLE_NARROW__ISO_
  5
473
 10
1.25165
 20
-1.05017
 30
0.000000
  70
    32
  0
VERTEX
  8
VISIBLE_NARROW__ISO_
  5
474
 10
1.25927
 20
-1.05770
 30
0.000000
  70
    32
  0
VERTEX
  8
VISIBLE_NARROW__ISO_
  5
475
 10
1.26698
 20
-1.06513
 30
0.000000
  70
    32
  0
VERTEX
  8
VISIBLE_NARROW__ISO_
  5
476
 10
1.27478
 20
-1.07246
 30
0.000000
  70
    32
  0
VERTEX
  8
VISIBLE_NARROW__ISO_
  5
477
 10
1.28267
 20
-1.07970
 30
0.000000
  70
    32
  0
VERTEX
  8
VISIBLE_NARROW__ISO_
  5
478
 10
1.29065
 20
-1.08684
 30
0.000000
  70
    32
  0
VERTEX
  8
VISIBLE_NARROW__ISO_
  5
479
 10
1.29871
 20
-1.09389
 30
0.000000
  70
    32
  0
VERTEX
  8
VISIBLE_NARROW__ISO_
  5
47A
 10
1.30686
 20
-1.10083
 30
0.000000
  70
    32
  0
VERTEX
  8
VISIBLE_NARROW__ISO_
  5
47B
 10
1.31510
 20
-1.10767
 30
0.000000
  70
    32
  0
VERTEX
  8
VISIBLE_NARROW__ISO_
  5
47C
 10
1.32342
 20
-1.11441
 30
0.000000
  70
    32
  0
VERTEX
  8
VISIBLE_NARROW__ISO_
  5
47D
 10
1.33182
 20
-1.12105
 30
0.000000
  70
    32
  0
VERTEX
  8
VISIBLE_NARROW__ISO_
  5
47E
 10
1.34030
 20
-1.12758
 30
0.000000
  70
    32
  0
VERTEX
  8
VISIBLE_NARROW__ISO_
  5
47F
 10
1.34886
 20
-1.13401
 30
0.000000
  70
    32
  0
VERTEX
  8
VISIBLE_NARROW__ISO_
  5
480
 10
1.35750
 20
-1.14034
 30
0.000000
  70
    32
  0
VERTEX
  8
VISIBLE_NARROW__ISO_
  5
481
 10
1.36622
 20
-1.14656
 30
0.000000
  70
    32
  0
VERTEX
  8
VISIBLE_NARROW__ISO_
  5
482
 10
1.37502
 20
-1.15267
 30
0.000000
  70
    32
  0
VERTEX
  8
VISIBLE_NARROW__ISO_
  5
483
 10
1.38388
 20
-1.15867
 30
0.000000
  70
    32
  0
VERTEX
  8
VISIBLE_NARROW__ISO_
  5
484
 10
1.39282
 20
-1.16456
 30
0.000000
  70
    32
  0
VERTEX
  8
VISIBLE_NARROW__ISO_
  5
485
 10
1.40184
 20
-1.17035
 30
0.000000
  70
    32
  0
VERTEX
  8
VISIBLE_NARROW__ISO_
  5
486
 10
1.41092
 20
-1.17602
 30
0.000000
  70
    32
  0
VERTEX
  8
VISIBLE_NARROW__ISO_
  5
487
 10
1.42007
 20
-1.18158
 30
0.000000
  70
    32
  0
VERTEX
  8
VISIBLE_NARROW__ISO_
  5
488
 10
1.42929
 20
-1.18702
 30
0.000000
  70
    32
  0
VERTEX
  8
VISIBLE_NARROW__ISO_
  5
489
 10
1.43858
 20
-1.19236
 30
0.000000
  70
    32
  0
VERTEX
  8
VISIBLE_NARROW__ISO_
  5
48A
 10
1.44793
 20
-1.19758
 30
0.000000
  70
    32
  0
VERTEX
  8
VISIBLE_NARROW__ISO_
  5
48B
 10
1.45735
 20
-1.20268
 30
0.000000
  70
    32
  0
VERTEX
  8
VISIBLE_NARROW__ISO_
  5
48C
 10
1.46682
 20
-1.20767
 30
0.000000
  70
    32
  0
VERTEX
  8
VISIBLE_NARROW__ISO_
  5
48D
 10
1.47636
 20
-1.21254
 30
0.000000
  70
    32
  0
VERTEX
  8
VISIBLE_NARROW__ISO_
  5
48E
 10
1.48596
 20
-1.21729
 30
0.000000
  70
    32
  0
VERTEX
  8
VISIBLE_NARROW__ISO_
  5
48F
 10
1.49561
 20
-1.22193
 30
0.000000
  70
    32
  0
VERTEX
  8
VISIBLE_NARROW__ISO_
  5
490
 10
1.50532
 20
-1.22645
 30
0.000000
  70
    32
  0
VERTEX
  8
VISIBLE_NARROW__ISO_
  5
491
 10
1.51509
 20
-1.23084
 30
0.000000
  70
    32
  0
VERTEX
  8
VISIBLE_NARROW__ISO_
  5
492
 10
1.52491
 20
-1.23512
 30
0.000000
  70
    32
  0
VERTEX
  8
VISIBLE_NARROW__ISO_
  5
493
 10
1.53478
 20
-1.23928
 30
0.000000
  70
    32
  0
VERTEX
  8
VISIBLE_NARROW__ISO_
  5
494
 10
1.54470
 20
-1.24331
 30
0.000000
  70
    32
  0
VERTEX
  8
VISIBLE_NARROW__ISO_
  5
495
 10
1.55467
 20
-1.24723
 30
0.000000
  70
    32
  0
VERTEX
  8
VISIBLE_NARROW__ISO_
  5
496
 10
1.56469
 20
-1.25102
 30
0.000000
  70
    32
  0
VERTEX
  8
VISIBLE_NARROW__ISO_
  5
497
 10
1.57476
 20
-1.25469
 30
0.000000
  70
    32
  0
VERTEX
  8
VISIBLE_NARROW__ISO_
  5
498
 10
1.58487
 20
-1.25823
 30
0.000000
  70
    32
  0
VERTEX
  8
VISIBLE_NARROW__ISO_
  5
499
 10
1.59502
 20
-1.26165
 30
0.000000
  70
    32
  0
VERTEX
  8
VISIBLE_NARROW__ISO_
  5
49A
 10
1.60521
 20
-1.26495
 30
0.000000
  70
    32
  0
VERTEX
  8
VISIBLE_NARROW__ISO_
  5
49B
 10
1.61545
 20
-1.26811
 30
0.000000
  70
    32
  0
VERTEX
  8
VISIBLE_NARROW__ISO_
  5
49C
 10
1.62572
 20
-1.27116
 30
0.000000
  70
    32
  0
VERTEX
  8
VISIBLE_NARROW__ISO_
  5
49D
 10
1.63603
 20
-1.27408
 30
0.000000
  70
    32
  0
VERTEX
  8
VISIBLE_NARROW__ISO_
  5
49E
 10
1.64637
 20
-1.27687
 30
0.000000
  70
    32
  0
VERTEX
  8
VISIBLE_NARROW__ISO_
  5
49F
 10
1.65675
 20
-1.27953
 30
0.000000
  70
    32
  0
VERTEX
  8
VISIBLE_NARROW__ISO_
  5
4A0
 10
1.66716
 20
-1.28207
 30
0.000000
  70
    32
  0
VERTEX
  8
VISIBLE_NARROW__ISO_
  5
4A1
 10
1.67760
 20
-1.28448
 30
0.000000
  70
    32
  0
VERTEX
  8
VISIBLE_NARROW__ISO_
  5
4A2
 10
1.68807
 20
-1.28676
 30
0.000000
  70
    32
  0
VERTEX
  8
VISIBLE_NARROW__ISO_
  5
4A3
 10
1.69857
 20
-1.28891
 30
0.000000
  70
    32
  0
VERTEX
  8
VISIBLE_NARROW__ISO_
  5
4A4
 10
1.70909
 20
-1.29094
 30
0.000000
  70
    32
  0
VERTEX
  8
VISIBLE_NARROW__ISO_
  5
4A5
 10
1.71964
 20
-1.29283
 30
0.000000
  70
    32
  0
VERTEX
  8
VISIBLE_NARROW__ISO_
  5
4A6
 10
1.73021
 20
-1.29460
 30
0.000000
  70
    32
  0
VERTEX
  8
VISIBLE_NARROW__ISO_
  5
4A7
 10
1.74080
 20
-1.29623
 30
0.000000
  70
    32
  0
VERTEX
  8
VISIBLE_NARROW__ISO_
  5
4A8
 10
1.75141
 20
-1.29774
 30
0.000000
  70
    32
  0
VERTEX
  8
VISIBLE_NARROW__ISO_
  5
4A9
 10
1.76204
 20
-1.29911
 30
0.000000
  70
    32
  0
VERTEX
  8
VISIBLE_NARROW__ISO_
  5
4AA
 10
1.77269
 20
-1.30036
 30
0.000000
  70
    32
  0
VERTEX
  8
VISIBLE_NARROW__ISO_
  5
4AB
 10
1.78335
 20
-1.30147
 30
0.000000
  70
    32
  0
VERTEX
  8
VISIBLE_NARROW__ISO_
  5
4AC
 10
1.79402
 20
-1.30245
 30
0.000000
  70
    32
  0
VERTEX
  8
VISIBLE_NARROW__ISO_
  5
4AD
 10
1.80471
 20
-1.30331
 30
0.000000
  70
    32
  0
VERTEX
  8
VISIBLE_NARROW__ISO_
  5
4AE
 10
1.81540
 20
-1.30403
 30
0.000000
  70
    32
  0
VERTEX
  8
VISIBLE_NARROW__ISO_
  5
4AF
 10
1.82611
 20
-1.30462
 30
0.000000
  70
    32
  0
VERTEX
  8
VISIBLE_NARROW__ISO_
  5
4B0
 10
1.83682
 20
-1.30508
 30
0.000000
  70
    32
  0
VERTEX
  8
VISIBLE_NARROW__ISO_
  5
4B1
 10
1.84753
 20
-1.30541
 30
0.000000
  70
    32
  0
VERTEX
  8
VISIBLE_NARROW__ISO_
  5
4B2
 10
1.85825
 20
-1.30561
 30
0.000000
  70
    32
  0
VERTEX
  8
VISIBLE_NARROW__ISO_
  5
4B3
 10
1.86897
 20
-1.30567
 30
0.000000
  70
    32
  0
SEQEND
  8
VISIBLE_NARROW__ISO_
  5
4B4
  0
LINE
  5
BA
 67
     1
  8
VISIBLE_NARROW__ISO_
 10
1.8689745597347731
 20
-1.3056710019297091
 30
0.0
 11
14.2641041955788896
 21
-1.3056710019297091
 31
0.0
  0
POLYLINE
  5
BB
 67
     1
  8
VISIBLE_NARROW__ISO_
 10
14.2641041955787156
 20
-1.305671001929708
 30
0.0
 66
     1
 70
     8
  0
VERTEX
  8
VISIBLE_NARROW__ISO_
  5
4B5
 10
14.2641
 20
-1.30567
 30
0.000000
  70
    32
  0
VERTEX
  8
VISIBLE_NARROW__ISO_
  5
4B6
 10
14.2748
 20
-1.30561
 30
0.000000
  70
    32
  0
VERTEX
  8
VISIBLE_NARROW__ISO_
  5
4B7
 10
14.2855
 20
-1.30541
 30
0.000000
  70
    32
  0
VERTEX
  8
VISIBLE_NARROW__ISO_
  5
4B8
 10
14.2963
 20
-1.30508
 30
0.000000
  70
    32
  0
VERTEX
  8
VISIBLE_NARROW__ISO_
  5
4B9
 10
14.3070
 20
-1.30462
 30
0.000000
  70
    32
  0
VERTEX
  8
VISIBLE_NARROW__ISO_
  5
4BA
 10
14.3177
 20
-1.30403
 30
0.000000
  70
    32
  0
VERTEX
  8
VISIBLE_NARROW__ISO_
  5
4BB
 10
14.3284
 20
-1.30331
 30
0.000000
  70
    32
  0
VERTEX
  8
VISIBLE_NARROW__ISO_
  5
4BC
 10
14.3391
 20
-1.30245
 30
0.000000
  70
    32
  0
VERTEX
  8
VISIBLE_NARROW__ISO_
  5
4BD
 10
14.3497
 20
-1.30147
 30
0.000000
  70
    32
  0
VERTEX
  8
VISIBLE_NARROW__ISO_
  5
4BE
 10
14.3604
 20
-1.30036
 30
0.000000
  70
    32
  0
VERTEX
  8
VISIBLE_NARROW__ISO_
  5
4BF
 10
14.3710
 20
-1.29911
 30
0.000000
  70
    32
  0
VERTEX
  8
VISIBLE_NARROW__ISO_
  5
4C0
 10
14.3817
 20
-1.29774
 30
0.000000
  70
    32
  0
VERTEX
  8
VISIBLE_NARROW__ISO_
  5
4C1
 10
14.3923
 20
-1.29623
 30
0.000000
  70
    32
  0
VERTEX
  8
VISIBLE_NARROW__ISO_
  5
4C2
 10
14.4029
 20
-1.29460
 30
0.000000
  70
    32
  0
VERTEX
  8
VISIBLE_NARROW__ISO_
  5
4C3
 10
14.4134
 20
-1.29283
 30
0.000000
  70
    32
  0
VERTEX
  8
VISIBLE_NARROW__ISO_
  5
4C4
 10
14.4240
 20
-1.29094
 30
0.000000
  70
    32
  0
VERTEX
  8
VISIBLE_NARROW__ISO_
  5
4C5
 10
14.4345
 20
-1.28891
 30
0.000000
  70
    32
  0
VERTEX
  8
VISIBLE_NARROW__ISO_
  5
4C6
 10
14.4450
 20
-1.28676
 30
0.000000
  70
    32
  0
VERTEX
  8
VISIBLE_NARROW__ISO_
  5
4C7
 10
14.4555
 20
-1.28448
 30
0.000000
  70
    32
  0
VERTEX
  8
VISIBLE_NARROW__ISO_
  5
4C8
 10
14.4659
 20
-1.28207
 30
0.000000
  70
    32
  0
VERTEX
  8
VISIBLE_NARROW__ISO_
  5
4C9
 10
14.4763
 20
-1.27953
 30
0.000000
  70
    32
  0
VERTEX
  8
VISIBLE_NARROW__ISO_
  5
4CA
 10
14.4867
 20
-1.27687
 30
0.000000
  70
    32
  0
VERTEX
  8
VISIBLE_NARROW__ISO_
  5
4CB
 10
14.4971
 20
-1.27408
 30
0.000000
  70
    32
  0
VERTEX
  8
VISIBLE_NARROW__ISO_
  5
4CC
 10
14.5074
 20
-1.27116
 30
0.000000
  70
    32
  0
VERTEX
  8
VISIBLE_NARROW__ISO_
  5
4CD
 10
14.5176
 20
-1.26811
 30
0.000000
  70
    32
  0
VERTEX
  8
VISIBLE_NARROW__ISO_
  5
4CE
 10
14.5279
 20
-1.26495
 30
0.000000
  70
    32
  0
VERTEX
  8
VISIBLE_NARROW__ISO_
  5
4CF
 10
14.5381
 20
-1.26165
 30
0.000000
  70
    32
  0
VERTEX
  8
VISIBLE_NARROW__ISO_
  5
4D0
 10
14.5482
 20
-1.25823
 30
0.000000
  70
    32
  0
VERTEX
  8
VISIBLE_NARROW__ISO_
  5
4D1
 10
14.5583
 20
-1.25469
 30
0.000000
  70
    32
  0
VERTEX
  8
VISIBLE_NARROW__ISO_
  5
4D2
 10
14.5684
 20
-1.25102
 30
0.000000
  70
    32
  0
VERTEX
  8
VISIBLE_NARROW__ISO_
  5
4D3
 10
14.5784
 20
-1.24723
 30
0.000000
  70
    32
  0
VERTEX
  8
VISIBLE_NARROW__ISO_
  5
4D4
 10
14.5884
 20
-1.24331
 30
0.000000
  70
    32
  0
VERTEX
  8
VISIBLE_NARROW__ISO_
  5
4D5
 10
14.5983
 20
-1.23928
 30
0.000000
  70
    32
  0
VERTEX
  8
VISIBLE_NARROW__ISO_
  5
4D6
 10
14.6082
 20
-1.23512
 30
0.000000
  70
    32
  0
VERTEX
  8
VISIBLE_NARROW__ISO_
  5
4D7
 10
14.6180
 20
-1.23084
 30
0.000000
  70
    32
  0
VERTEX
  8
VISIBLE_NARROW__ISO_
  5
4D8
 10
14.6278
 20
-1.22645
 30
0.000000
  70
    32
  0
VERTEX
  8
VISIBLE_NARROW__ISO_
  5
4D9
 10
14.6375
 20
-1.22193
 30
0.000000
  70
    32
  0
VERTEX
  8
VISIBLE_NARROW__ISO_
  5
4DA
 10
14.6471
 20
-1.21729
 30
0.000000
  70
    32
  0
VERTEX
  8
VISIBLE_NARROW__ISO_
  5
4DB
 10
14.6567
 20
-1.21254
 30
0.000000
  70
    32
  0
VERTEX
  8
VISIBLE_NARROW__ISO_
  5
4DC
 10
14.6663
 20
-1.20767
 30
0.000000
  70
    32
  0
VERTEX
  8
VISIBLE_NARROW__ISO_
  5
4DD
 10
14.6757
 20
-1.20268
 30
0.000000
  70
    32
  0
VERTEX
  8
VISIBLE_NARROW__ISO_
  5
4DE
 10
14.6851
 20
-1.19758
 30
0.000000
  70
    32
  0
VERTEX
  8
VISIBLE_NARROW__ISO_
  5
4DF
 10
14.6945
 20
-1.19236
 30
0.000000
  70
    32
  0
VERTEX
  8
VISIBLE_NARROW__ISO_
  5
4E0
 10
14.7038
 20
-1.18702
 30
0.000000
  70
    32
  0
VERTEX
  8
VISIBLE_NARROW__ISO_
  5
4E1
 10
14.7130
 20
-1.18158
 30
0.000000
  70
    32
  0
VERTEX
  8
VISIBLE_NARROW__ISO_
  5
4E2
 10
14.7222
 20
-1.17602
 30
0.000000
  70
    32
  0
VERTEX
  8
VISIBLE_NARROW__ISO_
  5
4E3
 10
14.7312
 20
-1.17035
 30
0.000000
  70
    32
  0
VERTEX
  8
VISIBLE_NARROW__ISO_
  5
4E4
 10
14.7403
 20
-1.16456
 30
0.000000
  70
    32
  0
VERTEX
  8
VISIBLE_NARROW__ISO_
  5
4E5
 10
14.7492
 20
-1.15867
 30
0.000000
  70
    32
  0
VERTEX
  8
VISIBLE_NARROW__ISO_
  5
4E6
 10
14.7581
 20
-1.15267
 30
0.000000
  70
    32
  0
VERTEX
  8
VISIBLE_NARROW__ISO_
  5
4E7
 10
14.7669
 20
-1.14656
 30
0.000000
  70
    32
  0
VERTEX
  8
VISIBLE_NARROW__ISO_
  5
4E8
 10
14.7756
 20
-1.14034
 30
0.000000
  70
    32
  0
VERTEX
  8
VISIBLE_NARROW__ISO_
  5
4E9
 10
14.7842
 20
-1.13401
 30
0.000000
  70
    32
  0
VERTEX
  8
VISIBLE_NARROW__ISO_
  5
4EA
 10
14.7928
 20
-1.12758
 30
0.000000
  70
    32
  0
VERTEX
  8
VISIBLE_NARROW__ISO_
  5
4EB
 10
14.8013
 20
-1.12105
 30
0.000000
  70
    32
  0
VERTEX
  8
VISIBLE_NARROW__ISO_
  5
4EC
 10
14.8097
 20
-1.11441
 30
0.000000
  70
    32
  0
VERTEX
  8
VISIBLE_NARROW__ISO_
  5
4ED
 10
14.8180
 20
-1.10767
 30
0.000000
  70
    32
  0
VERTEX
  8
VISIBLE_NARROW__ISO_
  5
4EE
 10
14.8262
 20
-1.10083
 30
0.000000
  70
    32
  0
VERTEX
  8
VISIBLE_NARROW__ISO_
  5
4EF
 10
14.8344
 20
-1.09389
 30
0.000000
  70
    32
  0
VERTEX
  8
VISIBLE_NARROW__ISO_
  5
4F0
 10
14.8424
 20
-1.08684
 30
0.000000
  70
    32
  0
VERTEX
  8
VISIBLE_NARROW__ISO_
  5
4F1
 10
14.8504
 20
-1.07970
 30
0.000000
  70
    32
  0
VERTEX
  8
VISIBLE_NARROW__ISO_
  5
4F2
 10
14.8583
 20
-1.07246
 30
0.000000
  70
    32
  0
VERTEX
  8
VISIBLE_NARROW__ISO_
  5
4F3
 10
14.8661
 20
-1.06513
 30
0.000000
  70
    32
  0
VERTEX
  8
VISIBLE_NARROW__ISO_
  5
4F4
 10
14.8738
 20
-1.05770
 30
0.000000
  70
    32
  0
VERTEX
  8
VISIBLE_NARROW__ISO_
  5
4F5
 10
14.8814
 20
-1.05017
 30
0.000000
  70
    32
  0
VERTEX
  8
VISIBLE_NARROW__ISO_
  5
4F6
 10
14.8889
 20
-1.04256
 30
0.000000
  70
    32
  0
VERTEX
  8
VISIBLE_NARROW__ISO_
  5
4F7
 10
14.8964
 20
-1.03485
 30
0.000000
  70
    32
  0
VERTEX
  8
VISIBLE_NARROW__ISO_
  5
4F8
 10
14.9037
 20
-1.02705
 30
0.000000
  70
    32
  0
VERTEX
  8
VISIBLE_NARROW__ISO_
  5
4F9
 10
14.9110
 20
-1.01916
 30
0.000000
  70
    32
  0
VERTEX
  8
VISIBLE_NARROW__ISO_
  5
4FA
 10
14.9181
 20
-1.01118
 30
0.000000
  70
    32
  0
VERTEX
  8
VISIBLE_NARROW__ISO_
  5
4FB
 10
14.9251
 20
-1.00311
 30
0.000000
  70
    32
  0
VERTEX
  8
VISIBLE_NARROW__ISO_
  5
4FC
 10
14.9321
 20
-0.994964
 30
0.000000
  70
    32
  0
VERTEX
  8
VISIBLE_NARROW__ISO_
  5
4FD
 10
14.9389
 20
-0.986728
 30
0.000000
  70
    32
  0
VERTEX
  8
VISIBLE_NARROW__ISO_
  5
4FE
 10
14.9457
 20
-0.978409
 30
0.000000
  70
    32
  0
VERTEX
  8
VISIBLE_NARROW__ISO_
  5
4FF
 10
14.9523
 20
-0.970008
 30
0.000000
  70
    32
  0
VERTEX
  8
VISIBLE_NARROW__ISO_
  5
500
 10
14.9588
 20
-0.961525
 30
0.000000
  70
    32
  0
VERTEX
  8
VISIBLE_NARROW__ISO_
  5
501
 10
14.9653
 20
-0.952963
 30
0.000000
  70
    32
  0
VERTEX
  8
VISIBLE_NARROW__ISO_
  5
502
 10
14.9716
 20
-0.944323
 30
0.000000
  70
    32
  0
VERTEX
  8
VISIBLE_NARROW__ISO_
  5
503
 10
14.9778
 20
-0.935606
 30
0.000000
  70
    32
  0
VERTEX
  8
VISIBLE_NARROW__ISO_
  5
504
 10
14.9839
 20
-0.926812
 30
0.000000
  70
    32
  0
VERTEX
  8
VISIBLE_NARROW__ISO_
  5
505
 10
14.9899
 20
-0.917944
 30
0.000000
  70
    32
  0
VERTEX
  8
VISIBLE_NARROW__ISO_
  5
506
 10
14.9958
 20
-0.909003
 30
0.000000
  70
    32
  0
VERTEX
  8
VISIBLE_NARROW__ISO_
  5
507
 10
15.0016
 20
-0.899991
 30
0.000000
  70
    32
  0
VERTEX
  8
VISIBLE_NARROW__ISO_
  5
508
 10
15.0073
 20
-0.890907
 30
0.000000
  70
    32
  0
VERTEX
  8
VISIBLE_NARROW__ISO_
  5
509
 10
15.0128
 20
-0.881755
 30
0.000000
  70
    32
  0
VERTEX
  8
VISIBLE_NARROW__ISO_
  5
50A
 10
15.0183
 20
-0.872535
 30
0.000000
  70
    32
  0
VERTEX
  8
VISIBLE_NARROW__ISO_
  5
50B
 10
15.0236
 20
-0.863248
 30
0.000000
  70
    32
  0
VERTEX
  8
VISIBLE_NARROW__ISO_
  5
50C
 10
15.0288
 20
-0.853897
 30
0.000000
  70
    32
  0
VERTEX
  8
VISIBLE_NARROW__ISO_
  5
50D
 10
15.0339
 20
-0.844482
 30
0.000000
  70
    32
  0
VERTEX
  8
VISIBLE_NARROW__ISO_
  5
50E
 10
15.0389
 20
-0.835005
 30
0.000000
  70
    32
  0
VERTEX
  8
VISIBLE_NARROW__ISO_
  5
50F
 10
15.0438
 20
-0.825467
 30
0.000000
  70
    32
  0
VERTEX
  8
VISIBLE_NARROW__ISO_
  5
510
 10
15.0485
 20
-0.815870
 30
0.000000
  70
    32
  0
VERTEX
  8
VISIBLE_NARROW__ISO_
  5
511
 10
15.0532
 20
-0.806215
 30
0.000000
  70
    32
  0
VERTEX
  8
VISIBLE_NARROW__ISO_
  5
512
 10
15.0577
 20
-0.796504
 30
0.000000
  70
    32
  0
VERTEX
  8
VISIBLE_NARROW__ISO_
  5
513
 10
15.0621
 20
-0.786738
 30
0.000000
  70
    32
  0
VERTEX
  8
VISIBLE_NARROW__ISO_
  5
514
 10
15.0664
 20
-0.776918
 30
0.000000
  70
    32
  0
VERTEX
  8
VISIBLE_NARROW__ISO_
  5
515
 10
15.0705
 20
-0.767047
 30
0.000000
  70
    32
  0
VERTEX
  8
VISIBLE_NARROW__ISO_
  5
516
 10
15.0746
 20
-0.757124
 30
0.000000
  70
    32
  0
VERTEX
  8
VISIBLE_NARROW__ISO_
  5
517
 10
15.0785
 20
-0.747153
 30
0.000000
  70
    32
  0
VERTEX
  8
VISIBLE_NARROW__ISO_
  5
518
 10
15.0823
 20
-0.737134
 30
0.000000
  70
    32
  0
VERTEX
  8
VISIBLE_NARROW__ISO_
  5
519
 10
15.0859
 20
-0.727070
 30
0.000000
  70
    32
  0
VERTEX
  8
VISIBLE_NARROW__ISO_
  5
51A
 10
15.0895
 20
-0.716960
 30
0.000000
  70
    32
  0
VERTEX
  8
VISIBLE_NARROW__ISO_
  5
51B
 10
15.0929
 20
-0.706808
 30
0.000000
  70
    32
  0
VERTEX
  8
VISIBLE_NARROW__ISO_
  5
51C
 10
15.0962
 20
-0.696614
 30
0.000000
  70
    32
  0
VERTEX
  8
VISIBLE_NARROW__ISO_
  5
51D
 10
15.0994
 20
-0.686381
 30
0.000000
  70
    32
  0
VERTEX
  8
VISIBLE_NARROW__ISO_
  5
51E
 10
15.1024
 20
-0.676109
 30
0.000000
  70
    32
  0
VERTEX
  8
VISIBLE_NARROW__ISO_
  5
51F
 10
15.1053
 20
-0.665800
 30
0.000000
  70
    32
  0
VERTEX
  8
VISIBLE_NARROW__ISO_
  5
520
 10
15.1081
 20
-0.655455
 30
0.000000
  70
    32
  0
VERTEX
  8
VISIBLE_NARROW__ISO_
  5
521
 10
15.1108
 20
-0.645077
 30
0.000000
  70
    32
  0
VERTEX
  8
VISIBLE_NARROW__ISO_
  5
522
 10
15.1133
 20
-0.634667
 30
0.000000
  70
    32
  0
VERTEX
  8
VISIBLE_NARROW__ISO_
  5
523
 10
15.1157
 20
-0.624226
 30
0.000000
  70
    32
  0
VERTEX
  8
VISIBLE_NARROW__ISO_
  5
524
 10
15.1180
 20
-0.613756
 30
0.000000
  70
    32
  0
VERTEX
  8
VISIBLE_NARROW__ISO_
  5
525
 10
15.1202
 20
-0.603259
 30
0.000000
  70
    32
  0
VERTEX
  8
VISIBLE_NARROW__ISO_
  5
526
 10
15.1222
 20
-0.592735
 30
0.000000
  70
    32
  0
VERTEX
  8
VISIBLE_NARROW__ISO_
  5
527
 10
15.1241
 20
-0.582187
 30
0.000000
  70
    32
  0
VERTEX
  8
VISIBLE_NARROW__ISO_
  5
528
 10
15.1258
 20
-0.571617
 30
0.000000
  70
    32
  0
VERTEX
  8
VISIBLE_NARROW__ISO_
  5
529
 10
15.1275
 20
-0.561025
 30
0.000000
  70
    32
  0
VERTEX
  8
VISIBLE_NARROW__ISO_
  5
52A
 10
15.1290
 20
-0.550414
 30
0.000000
  70
    32
  0
VERTEX
  8
VISIBLE_NARROW__ISO_
  5
52B
 10
15.1304
 20
-0.539784
 30
0.000000
  70
    32
  0
VERTEX
  8
VISIBLE_NARROW__ISO_
  5
52C
 10
15.1316
 20
-0.529139
 30
0.000000
  70
    32
  0
VERTEX
  8
VISIBLE_NARROW__ISO_
  5
52D
 10
15.1327
 20
-0.518478
 30
0.000000
  70
    32
  0
VERTEX
  8
VISIBLE_NARROW__ISO_
  5
52E
 10
15.1337
 20
-0.507804
 30
0.000000
  70
    32
  0
VERTEX
  8
VISIBLE_NARROW__ISO_
  5
52F
 10
15.1346
 20
-0.497119
 30
0.000000
  70
    32
  0
VERTEX
  8
VISIBLE_NARROW__ISO_
  5
530
 10
15.1353
 20
-0.486424
 30
0.000000
  70
    32
  0
VERTEX
  8
VISIBLE_NARROW__ISO_
  5
531
 10
15.1359
 20
-0.475720
 30
0.000000
  70
    32
  0
VERTEX
  8
VISIBLE_NARROW__ISO_
  5
532
 10
15.1363
 20
-0.465009
 30
0.000000
  70
    32
  0
VERTEX
  8
VISIBLE_NARROW__ISO_
  5
533
 10
15.1367
 20
-0.454294
 30
0.000000
  70
    32
  0
VERTEX
  8
VISIBLE_NARROW__ISO_
  5
534
 10
15.1369
 20
-0.443574
 30
0.000000
  70
    32
  0
VERTEX
  8
VISIBLE_NARROW__ISO_
  5
535
 10
15.1369
 20
-0.432853
 30
0.000000
  70
    32
  0
SEQEND
  8
VISIBLE_NARROW__ISO_
  5
536
  0
LINE
  5
BC
 67
     1
  8
VISIBLE_NARROW__ISO_
 10
15.1369221354038093
 20
-0.432853062104897
 30
0.0
 11
15.1369221354038093
 21
14.5213316918495501
 31
0.0
  0
ENDSEC
  0
EOF
